  0
SECTION
  2
HEADER
  9
$ACADVER
  1
AC1009
  9
$INSBASE
 10
0
 20
0
 30
0
  9
$EXTMIN
 10
0
 20
0
  9
$EXTMAX
 10
420.5
 20
297
  9
$LIMMIN
 10
0
 20
0
  9
$LIMMAX
 10
420.5
 20
297
  9
$LTSCALE
 40
0.5
  0
ENDSEC
  0
SECTION
  2
TABLES
  0
TABLE
  2
LTYPE
 70
     9
  0
LTYPE
  2
CONTINUOUS
 70
    64
  3
実線
 72
    65
 73
     0
 40
0.0
  0
LTYPE
  2
DASHED1
 70
    64
  3
--  --  --  --  --  --  --  --  
 72
    65
 73
     2
 40
2.5
 49
1.25
 49
-1.25
  0
LTYPE
  2
DASHED2
 70
    64
  3
----    ----    ----    ----    
 72
    65
 73
     2
 40
5.0
 49
2.5
 49
-2.5
  0
LTYPE
  2
DASHED3
 70
    64
  3
------  ------  ------  ------  
 72
    65
 73
     2
 40
5.0
 49
3.75
 49
-1.25
  0
LTYPE
  2
CENTER1
 70
    64
  3
----- - ----- - ----- - ----- - 
 72
    65
 73
     4
 40
10.0
 49
6.25
 49
-1.25
 49
1.25
 49
-1.25
  0
LTYPE
  2
CENTER2
 70
    64
  3
----------  --  ----------  --  
 72
    65
 73
     4
 40
20.0
 49
12.5
 49
-2.5
 49
2.5
 49
-2.5
  0
LTYPE
  2
PHANTOM1
 70
    64
  3
--- - - --- - - --- - - --- - - 
 72
    65
 73
     6
 40
10.0
 49
3.25
 49
-1.25
 49
1.25
 49
-1.25
 49
1.25
 49
-1.25
  0
LTYPE
  2
PHANTOM2
 70
    64
  3
--------  -  -  --------  -  -  
 72
    65
 73
     6
 40
20.0
 49
10.0
 49
-2.5
 49
1.25
 49
-2.5
 49
1.25
 49
-2.5
  0
LTYPE
  2
DOT
 70
    64
  3
-   -   -   -   -   -   -   -   
 72
    65
 73
     2
 40
2.5
 49
0.625
 49
-1.875
  0
LTYPE
  2
DUMMY
 70
    64
  3
ダミー
 72
    65
 73
     0
 40
0.0
  0
LTYPE
  2
RAND1
 70
    64
  3
ランダム線1
 72
    65
 73
     4
 40
10.0
 49
1.0
 49
-2.0
 49
3.0
 49
-4.0
  0
LTYPE
  2
RAND2
 70
    64
  3
ランダム線2
 72
    65
 73
     4
 40
14.0
 49
2.0
 49
-3.0
 49
4.0
 49
-5.0
  0
LTYPE
  2
RAND3
 70
    64
  3
ランダム線3
 72
    65
 73
     4
 40
18.0
 49
3.0
 49
-4.0
 49
5.0
 49
-6.0
  0
LTYPE
  2
RAND4
 70
    64
  3
ランダム線4
 72
    65
 73
     4
 40
22.0
 49
4.0
 49
-5.0
 49
6.0
 49
-7.0
  0
LTYPE
  2
RAND5
 70
    64
  3
ランダム線5
 72
    65
 73
     4
 40
26.0
 49
5.0
 49
-6.0
 49
7.0
 49
-8.0
  0
LTYPE
  2
LONG1
 70
    64
  3
----------  --  ----------  --  
 72
    65
 73
     4
 40
40.0
 49
32.5
 49
-2.5
 49
2.5
 49
-2.5
  0
LTYPE
  2
LONG2
 70
    64
  3
--------  -  -  --------  -  -  
 72
    65
 73
     6
 40
40.0
 49
30.0
 49
-2.5
 49
1.25
 49
-2.5
 49
1.25
 49
-2.5
  0
LTYPE
  2
LONG3
 70
    64
  3
+++++++++++++++..+++++++++++++++
 72
    65
 73
     2
 40
40.0
 49
37.5
 49
-2.5
  0
LTYPE
  2
LONG4
 70
    64
  3
+++++++++++++++..+++++++++++++++
 72
    65
 73
     2
 40
80.0
 49
75.0
 49
-5.0
  0
LTYPE
  2
LONG5
 70
    64
  3
----------  --  ----------  --  
 72
    65
 73
     4
 40
60.0
 49
37.5
 49
-7.5
 49
7.5
 49
-7.5
  0
LTYPE
  2
dashed
 70
   64
  3
-------   -------------   ------
 72
   65
 73
    2
 40
7.5
 49
6
 49
-1.5
  0
LTYPE
  2
dashed_spaced
 70
   64
  3
----        --------        ----
 72
   65
 73
    2
 40
12
 49
6
 49
-6
  0
LTYPE
  2
long_dashed_dotted
 70
   64
  3
------------- --- --------------
 72
   65
 73
    4
 40
15.25
 49
12
 49
-1.5
 49
0.25
 49
-1.5
  0
LTYPE
  2
long_dashed_double-dotted
 70
   64
  3
----------- --- --- ------------
 72
   65
 73
    6
 40
17
 49
12
 49
-1.5
 49
0.25
 49
-1.5
 49
0.25
 49
-1.5
  0
LTYPE
  2
long_dashed_triplicate-dotted
 70
   64
  3
--------- --- --- --- ----------
 72
   65
 73
    8
 40
18.75
 49
12
 49
-1.5
 49
0.25
 49
-1.5
 49
0.25
 49
-1.5
 49
0.25
 49
-1.5
  0
LTYPE
  2
dotted
 70
   64
  3
   -       -       -       -    
 72
   65
 73
    2
 40
1.75
 49
0.25
 49
-1.5
  0
LTYPE
  2
chain
 70
   64
  3
-------------- -- --------------
 72
   65
 73
    4
 40
18.5
 49
12
 49
-1.5
 49
3.5
 49
-1.5
  0
LTYPE
  2
chain_double_dash
 70
   64
  3
------------ -- -- -------------
 72
   65
 73
    6
 40
23.5
 49
12
 49
-1.5
 49
3.5
 49
-1.5
 49
3.5
 49
-1.5
  0
LTYPE
  2
dashed_dotted
 70
   64
  3
-----------     -     ----------
 72
   65
 73
    4
 40
9.25
 49
6
 49
-1.5
 49
0.25
 49
-1.5
  0
LTYPE
  2
double-dashed_dotted
 70
   64
  3
------   -----------   -   -----
 72
   65
 73
    6
 40
16.75
 49
6
 49
-1.5
 49
6
 49
-1.5
 49
0.25
 49
-1.5
  0
LTYPE
  2
dashed_double-dotted
 70
   64
  3
---------    -    -    ---------
 72
   65
 73
    6
 40
11
 49
6
 49
-1.5
 49
0.25
 49
-1.5
 49
0.25
 49
-1.5
  0
LTYPE
  2
double-dashed_double-dotted
 70
   64
  3
-----   ---------   -   -   ----
 72
   65
 73
    8
 40
18.5
 49
6
 49
-1.5
 49
6
 49
-1.5
 49
0.25
 49
-1.5
 49
0.25
 49
-1.5
  0
LTYPE
  2
dashed_triplicate-dotted
 70
   64
  3
-------    -    -    -    ------
 72
   65
 73
    8
 40
12.75
 49
6
 49
-1.5
 49
0.25
 49
-1.5
 49
0.25
 49
-1.5
 49
0.25
 49
-1.5
  0
LTYPE
  2
double-dashed_triplicate-dotted
 70
   64
  3
-----  ---------  -  -  -  -----
 72
   65
 73
   10
 40
20.25
 49
6
 49
-1.5
 49
6
 49
-1.5
 49
0.25
 49
-1.5
 49
0.25
 49
-1.5
 49
0.25
 49
-1.5
  0
LTYPE
  2
undefined
 70
   64
  3
--------------------------------
 72
   65
 73
    0
 40
0
  0
LTYPE
  2
DASHED
 70
   64
  3
------     -----------     -----
 72
   65
 73
    2
 40
19.100000000000001
 49
12.699999999999999
 49
-6.4000000000000004
  0
LTYPE
  2
CENTER
 70
   64
  3
----------    ----    ----------
 72
   65
 73
    4
 40
51
 49
31.800000000000001
 49
-6.4000000000000004
 49
6.4000000000000004
 49
-6.4000000000000004
  0
LTYPE
  2
PHANTOM
 70
   64
  3
---------   ---   ---   --------
 72
   65
 73
    6
 40
63.799999999999997
 49
31.800000000000001
 49
-6.4000000000000004
 49
6.4000000000000004
 49
-6.4000000000000004
 49
6.4000000000000004
 49
-6.4000000000000004
  0
LTYPE
  2
DOT_20
 70
   64
  3
-               -               
 72
   65
 73
    2
 40
6.5
 49
0.1
 49
-6.4000000000000004
  0
LTYPE
  2
_
 70
   64
  3
                                
 72
   65
 73
    0
 40
0
  0
LTYPE
  2
__22
 70
   64
  3
                                
 72
   65
 73
    0
 40
0
  0
LTYPE
  2
__23
 70
   64
  3
                                
 72
   65
 73
    0
 40
0
  0
LTYPE
  2
__24
 70
   64
  3
                                
 72
   65
 73
    0
 40
0
  0
LTYPE
  2
__25
 70
   64
  3
                                
 72
   65
 73
    0
 40
0
  0
LTYPE
  2
__26
 70
   64
  3
                                
 72
   65
 73
    0
 40
0
  0
LTYPE
  2
__27
 70
   64
  3
                                
 72
   65
 73
    0
 40
0
  0
LTYPE
  2
__28
 70
   64
  3
                                
 72
   65
 73
    0
 40
0
  0
LTYPE
  2
__29
 70
   64
  3
                                
 72
   65
 73
    0
 40
0
  0
LTYPE
  2
__30
 70
   64
  3
                                
 72
   65
 73
    0
 40
0
  0
LTYPE
  2
__31
 70
   64
  3
                                
 72
   65
 73
    0
 40
0
  0
LTYPE
  2
__32
 70
   64
  3
                                
 72
   65
 73
    0
 40
0
  0
ENDTAB
  0
TABLE
  2
STYLE
  5
3
100
AcDbSymbolTable
 70
     1
  0
STYLE
  5
10
100
AcDbSymbolTableRecord
100
AcDbTextStyleTableRecord
  2
STANDARD
 70
     0
 40
0.0
 41
1.0
 50
0.0
 71
     0
 42
0.2
  3
txt
  4
bigfont.shx
  0
STYLE
  5
26
100
AcDbSymbolTableRecord
100
AcDbTextStyleTableRecord
  2
TATEGAKI
 70
    68
 40
0.0
 41
1.0
 50
0.0
 71
     0
 42
1.0
  3
txt
  4
bigfont.shx
  0
ENDTAB
  0
TABLE
  2
LAYER
 70
    4
  0
LAYER
  2
_0-0_0
 70
   64
 62
    7
  6
CONTINUOUS
  0
LAYER
  2
_0-2_CSLAYER11
 70
   64
 62
    7
  6
CONTINUOUS
  0
LAYER
  2
_0-3_CSLAYER12
 70
   64
 62
    7
  6
CONTINUOUS
  0
LAYER
  2
ADD_LINE
 70
   64
 62
    7
  6
CONTINUOUS
  0
ENDTAB
  0
ENDSEC
  0
SECTION
  2
BLOCKS
  0
BLOCK
  2
-000-EDTIP_BLACKDOT_S
 70
   64
 10
0
 20
0
 30
0
  0
LINE
  8
_0-0_0
  6
CONTINUOUS
 62
    7
 10
0
 20
0
 11
-1
 21
0
  0
CIRCLE
  8
_0-0_0
  6
CONTINUOUS
 62
    7
 10
0
 20
0
 40
0.5
  0
CIRCLE
  8
_0-0_0
  6
CONTINUOUS
 62
    7
 10
0
 20
0
 40
0.25
  0
ENDBLK
  0
BLOCK
  2
-001-EDTIP_BLACKDOT_E
 70
   64
 10
0
 20
0
 30
0
  0
LINE
  8
_0-0_0
  6
CONTINUOUS
 62
    7
 10
0
 20
0
 11
-1
 21
0
  0
CIRCLE
  8
_0-0_0
  6
CONTINUOUS
 62
    7
 10
0
 20
0
 40
0.5
  0
CIRCLE
  8
_0-0_0
  6
CONTINUOUS
 62
    7
 10
0
 20
0
 40
0.25
  0
ENDBLK
  0
BLOCK
  2
-002-BLKF0008
 70
   64
 10
0
 20
0
 30
0
  0
LINE
  8
_0-3_CSLAYER12
  6
CONTINUOUS
 62
    5
 10
179.585003
 20
180.2919
 11
179.585003
 21
206.95333299999999
  0
LINE
  8
_0-3_CSLAYER12
  6
CONTINUOUS
 62
    5
 10
213.585003
 20
205.95333299999999
 11
179.585003
 21
205.95333299999999
  0
LINE
  8
_0-3_CSLAYER12
  6
CONTINUOUS
 62
    5
 10
213.585003
 20
205.95333299999999
 11
212.585003
 21
205.95333299999999
  0
CIRCLE
  8
_0-3_CSLAYER12
  6
CONTINUOUS
 62
    5
 10
213.585003
 20
205.95333299999999
 40
0.5
  0
CIRCLE
  8
_0-3_CSLAYER12
  6
CONTINUOUS
 62
    5
 10
213.585003
 20
205.95333299999999
 40
0.25
  0
LINE
  8
_0-3_CSLAYER12
  6
CONTINUOUS
 62
    5
 10
179.585003
 20
205.95333299999999
 11
180.585003
 21
205.95333299999999
  0
CIRCLE
  8
_0-3_CSLAYER12
  6
CONTINUOUS
 62
    5
 10
179.585003
 20
205.95333299999999
 40
0.5
  0
CIRCLE
  8
_0-3_CSLAYER12
  6
CONTINUOUS
 62
    5
 10
179.585003
 20
205.95333299999999
 40
0.25
  0
TEXT
  8
_0-3_CSLAYER12
 62
    7
 10
195.61000100000001
 20
206.95332300000001
 40
3.2200000000000002
 41
0.6055899999999998
 50
0
  1
Ｗ
  0
ENDBLK
  0
BLOCK
  2
-003-BLKF0009
 70
   64
 10
0
 20
0
 30
0
  0
LINE
  8
_0-3_CSLAYER12
  6
CONTINUOUS
 62
    5
 10
214.585003
 20
205.95333299999999
 11
214.585003
 21
211.99558999999999
  0
LINE
  8
_0-3_CSLAYER12
  6
CONTINUOUS
 62
    5
 10
178.585003
 20
205.95333299999999
 11
178.585003
 21
211.99558999999999
  0
LINE
  8
_0-3_CSLAYER12
  6
CONTINUOUS
 62
    5
 10
214.585003
 20
210.99558999999999
 11
178.585003
 21
210.99558999999999
  0
LINE
  8
_0-3_CSLAYER12
  6
CONTINUOUS
 62
    5
 10
214.585003
 20
210.99558999999999
 11
213.585003
 21
210.99558999999999
  0
CIRCLE
  8
_0-3_CSLAYER12
  6
CONTINUOUS
 62
    5
 10
214.585003
 20
210.99558999999999
 40
0.5
  0
CIRCLE
  8
_0-3_CSLAYER12
  6
CONTINUOUS
 62
    5
 10
214.585003
 20
210.99558999999999
 40
0.25
  0
LINE
  8
_0-3_CSLAYER12
  6
CONTINUOUS
 62
    5
 10
178.585003
 20
210.99558999999999
 11
179.585003
 21
210.99558999999999
  0
CIRCLE
  8
_0-3_CSLAYER12
  6
CONTINUOUS
 62
    5
 10
178.585003
 20
210.99558999999999
 40
0.5
  0
CIRCLE
  8
_0-3_CSLAYER12
  6
CONTINUOUS
 62
    5
 10
178.585003
 20
210.99558999999999
 40
0.25
  0
TEXT
  8
_0-3_CSLAYER12
 62
    7
 10
192.29499799999999
 20
211.99558999999999
 40
3.2200000000000002
 41
0.6661489999999998
 50
0
  1
開口＝Ｃ
  0
ENDBLK
  0
BLOCK
  2
-004-BLKF0010
 70
   64
 10
0
 20
0
 30
0
  0
LINE
  8
_0-3_CSLAYER12
  6
CONTINUOUS
 62
    5
 10
214.84126499999999
 20
129.141899
 11
223.023967
 21
129.141899
  0
LINE
  8
_0-3_CSLAYER12
  6
CONTINUOUS
 62
    5
 10
215.462864
 20
136.641899
 11
223.023967
 21
136.641899
  0
LINE
  8
_0-3_CSLAYER12
  6
CONTINUOUS
 62
    5
 10
222.023967
 20
129.141899
 11
222.023967
 21
136.641899
  0
LINE
  8
_0-3_CSLAYER12
  6
CONTINUOUS
 62
    5
 10
222.023967
 20
129.141899
 11
222.023967
 21
130.141899
  0
CIRCLE
  8
_0-3_CSLAYER12
  6
CONTINUOUS
 62
    5
 10
222.023967
 20
129.141899
 40
0.5
  0
CIRCLE
  8
_0-3_CSLAYER12
  6
CONTINUOUS
 62
    5
 10
222.023967
 20
129.141899
 40
0.25
  0
LINE
  8
_0-3_CSLAYER12
  6
CONTINUOUS
 62
    5
 10
222.023967
 20
136.641899
 11
222.023967
 21
135.641899
  0
CIRCLE
  8
_0-3_CSLAYER12
  6
CONTINUOUS
 62
    5
 10
222.023967
 20
136.641899
 40
0.5
  0
CIRCLE
  8
_0-3_CSLAYER12
  6
CONTINUOUS
 62
    5
 10
222.023967
 20
136.641899
 40
0.25
  0
TEXT
  8
_0-3_CSLAYER12
 62
    7
 10
221.02397199999999
 20
129.70689400000001
 40
3.2200000000000002
 41
0.65942
 50
90
  1
150
  0
ENDBLK
  0
BLOCK
  2
-005-BLKF0011
 70
   64
 10
0
 20
0
 30
0
  0
LINE
  8
_0-3_CSLAYER12
  6
CONTINUOUS
 62
    5
 10
214.586975
 20
178.2919
 11
223.023967
 21
178.2919
  0
LINE
  8
_0-3_CSLAYER12
  6
CONTINUOUS
 62
    5
 10
222.023967
 20
170.7919
 11
222.023967
 21
178.2919
  0
LINE
  8
_0-3_CSLAYER12
  6
CONTINUOUS
 62
    5
 10
222.023967
 20
170.7919
 11
222.023967
 21
171.7919
  0
CIRCLE
  8
_0-3_CSLAYER12
  6
CONTINUOUS
 62
    5
 10
222.023967
 20
170.7919
 40
0.5
  0
CIRCLE
  8
_0-3_CSLAYER12
  6
CONTINUOUS
 62
    5
 10
222.023967
 20
170.7919
 40
0.25
  0
LINE
  8
_0-3_CSLAYER12
  6
CONTINUOUS
 62
    5
 10
222.023967
 20
178.2919
 11
222.023967
 21
177.2919
  0
CIRCLE
  8
_0-3_CSLAYER12
  6
CONTINUOUS
 62
    5
 10
222.023967
 20
178.2919
 40
0.5
  0
CIRCLE
  8
_0-3_CSLAYER12
  6
CONTINUOUS
 62
    5
 10
222.023967
 20
178.2919
 40
0.25
  0
TEXT
  8
_0-3_CSLAYER12
 62
    7
 10
221.02397199999999
 20
171.35690299999999
 40
3.2200000000000002
 41
0.65942
 50
90
  1
150
  0
ENDBLK
  0
BLOCK
  2
-006-BLKF0012
 70
   64
 10
0
 20
0
 30
0
  0
LINE
  8
_0-3_CSLAYER12
  6
CONTINUOUS
 62
    5
 10
225.023967
 20
129.141899
 11
231.643182
 21
129.141899
  0
LINE
  8
_0-3_CSLAYER12
  6
CONTINUOUS
 62
    5
 10
225.023967
 20
178.2919
 11
231.643182
 21
178.2919
  0
LINE
  8
_0-3_CSLAYER12
  6
CONTINUOUS
 62
    5
 10
230.643182
 20
129.141899
 11
230.643182
 21
178.2919
  0
LINE
  8
_0-3_CSLAYER12
  6
CONTINUOUS
 62
    5
 10
230.643182
 20
129.141899
 11
230.643182
 21
130.141899
  0
CIRCLE
  8
_0-3_CSLAYER12
  6
CONTINUOUS
 62
    5
 10
230.643182
 20
129.141899
 40
0.5
  0
CIRCLE
  8
_0-3_CSLAYER12
  6
CONTINUOUS
 62
    5
 10
230.643182
 20
129.141899
 40
0.25
  0
LINE
  8
_0-3_CSLAYER12
  6
CONTINUOUS
 62
    5
 10
230.643182
 20
178.2919
 11
230.643182
 21
177.2919
  0
CIRCLE
  8
_0-3_CSLAYER12
  6
CONTINUOUS
 62
    5
 10
230.643182
 20
178.2919
 40
0.5
  0
CIRCLE
  8
_0-3_CSLAYER12
  6
CONTINUOUS
 62
    5
 10
230.643182
 20
178.2919
 40
0.25
  0
TEXT
  8
_0-3_CSLAYER12
 62
    7
 10
230.04629499999999
 20
153.12303199999999
 40
3.2200000000000002
 41
0.6055899999999998
 50
90
  1
*
  0
ENDBLK
  0
BLOCK
  2
-007-BLKF0013
 70
   64
 10
0
 20
0
 30
0
  0
LINE
  8
_0-0_0
  6
CONTINUOUS
 62
    5
 10
374.49816399999997
 20
40.705570000000002
 11
395.72139800000002
 21
40.705570000000002
  0
LINE
  8
_0-0_0
  6
CONTINUOUS
 62
    5
 10
374.49816399999997
 20
60.705568999999997
 11
395.72139800000002
 21
60.705568999999997
  0
LINE
  8
_0-0_0
  6
CONTINUOUS
 62
    5
 10
394.72139800000002
 20
40.705570000000002
 11
394.72139800000002
 21
60.705568999999997
  0
LINE
  8
_0-0_0
  6
CONTINUOUS
 62
    5
 10
394.72139800000002
 20
40.705570000000002
 11
394.72139800000002
 21
41.705570000000002
  0
CIRCLE
  8
_0-0_0
  6
CONTINUOUS
 62
    5
 10
394.72139800000002
 20
40.705570000000002
 40
0.5
  0
CIRCLE
  8
_0-0_0
  6
CONTINUOUS
 62
    5
 10
394.72139800000002
 20
40.705570000000002
 40
0.25
  0
LINE
  8
_0-0_0
  6
CONTINUOUS
 62
    5
 10
394.72139800000002
 20
60.705568999999997
 11
394.72139800000002
 21
59.705568999999997
  0
CIRCLE
  8
_0-0_0
  6
CONTINUOUS
 62
    5
 10
394.72139800000002
 20
60.705568999999997
 40
0.5
  0
CIRCLE
  8
_0-0_0
  6
CONTINUOUS
 62
    5
 10
394.72139800000002
 20
60.705568999999997
 40
0.25
  0
TEXT
  8
_0-0_0
 62
    7
 10
393.721405
 20
48.625571999999998
 40
3.2200000000000002
 41
0.645963
 50
90
  1
40
  0
ENDBLK
  0
BLOCK
  2
-008-BLKF0014
 70
   64
 10
0
 20
0
 30
0
  0
LINE
  8
_0-0_0
  6
CONTINUOUS
 62
    5
 10
374.49816399999997
 20
243.77417800000001
 11
395.72139800000002
 21
243.77417800000001
  0
LINE
  8
_0-0_0
  6
CONTINUOUS
 62
    5
 10
394.72139800000002
 20
60.705568999999997
 11
394.72139800000002
 21
243.77417800000001
  0
LINE
  8
_0-0_0
  6
CONTINUOUS
 62
    5
 10
394.72139800000002
 20
60.705568999999997
 11
394.72139800000002
 21
61.705568999999997
  0
CIRCLE
  8
_0-0_0
  6
CONTINUOUS
 62
    5
 10
394.72139800000002
 20
60.705568999999997
 40
0.5
  0
CIRCLE
  8
_0-0_0
  6
CONTINUOUS
 62
    5
 10
394.72139800000002
 20
60.705568999999997
 40
0.25
  0
LINE
  8
_0-0_0
  6
CONTINUOUS
 62
    5
 10
394.72139800000002
 20
243.77417800000001
 11
394.72139800000002
 21
242.77417800000001
  0
CIRCLE
  8
_0-0_0
  6
CONTINUOUS
 62
    5
 10
394.72139800000002
 20
243.77417800000001
 40
0.5
  0
CIRCLE
  8
_0-0_0
  6
CONTINUOUS
 62
    5
 10
394.72139800000002
 20
243.77417800000001
 40
0.25
  0
ENDBLK
  0
BLOCK
  2
-009-BLKF0015
 70
   64
 10
0
 20
0
 30
0
  0
LINE
  8
_0-0_0
  6
CONTINUOUS
 62
    5
 10
374.49816399999997
 20
263.77417800000001
 11
395.72139800000002
 21
263.77417800000001
  0
LINE
  8
_0-0_0
  6
CONTINUOUS
 62
    5
 10
394.72139800000002
 20
243.77417800000001
 11
394.72139800000002
 21
263.77417800000001
  0
LINE
  8
_0-0_0
  6
CONTINUOUS
 62
    5
 10
394.72139800000002
 20
243.77417800000001
 11
394.72139800000002
 21
244.77417800000001
  0
CIRCLE
  8
_0-0_0
  6
CONTINUOUS
 62
    5
 10
394.72139800000002
 20
243.77417800000001
 40
0.5
  0
CIRCLE
  8
_0-0_0
  6
CONTINUOUS
 62
    5
 10
394.72139800000002
 20
243.77417800000001
 40
0.25
  0
LINE
  8
_0-0_0
  6
CONTINUOUS
 62
    5
 10
394.72139800000002
 20
263.77417800000001
 11
394.72139800000002
 21
262.77417800000001
  0
CIRCLE
  8
_0-0_0
  6
CONTINUOUS
 62
    5
 10
394.72139800000002
 20
263.77417800000001
 40
0.5
  0
CIRCLE
  8
_0-0_0
  6
CONTINUOUS
 62
    5
 10
394.72139800000002
 20
263.77417800000001
 40
0.25
  0
TEXT
  8
_0-0_0
 62
    7
 10
393.721405
 20
251.69416799999999
 40
3.2200000000000002
 41
0.645963
 50
90
  1
40
  0
ENDBLK
  0
BLOCK
  2
-010-BLKF0016
 70
   64
 10
0
 20
0
 30
0
  0
LINE
  8
_0-3_CSLAYER12
  6
CONTINUOUS
 62
    5
 10
183.42346599999999
 20
129.141899
 11
183.42346599999999
 21
131.141899
  0
LINE
  8
_0-3_CSLAYER12
  6
CONTINUOUS
 62
    5
 10
183.42346599999999
 20
129.141899
 11
183.42346599999999
 21
130.141899
  0
CIRCLE
  8
_0-3_CSLAYER12
  6
CONTINUOUS
 62
    5
 10
183.42346599999999
 20
129.141899
 40
0.5
  0
CIRCLE
  8
_0-3_CSLAYER12
  6
CONTINUOUS
 62
    5
 10
183.42346599999999
 20
129.141899
 40
0.25
  0
LINE
  8
_0-3_CSLAYER12
  6
CONTINUOUS
 62
    5
 10
183.42346599999999
 20
124.4819
 11
183.42346599999999
 21
129.141899
  0
LINE
  8
_0-3_CSLAYER12
  6
CONTINUOUS
 62
    5
 10
183.42346599999999
 20
129.141899
 11
183.42346599999999
 21
128.141899
  0
CIRCLE
  8
_0-3_CSLAYER12
  6
CONTINUOUS
 62
    5
 10
183.42346599999999
 20
129.141899
 40
0.5
  0
CIRCLE
  8
_0-3_CSLAYER12
  6
CONTINUOUS
 62
    5
 10
183.42346599999999
 20
129.141899
 40
0.25
  0
TEXT
  8
_0-3_CSLAYER12
 62
    7
 10
182.42347699999999
 20
124.48189499999999
 40
3.2200000000000002
 41
0.645963
 50
90
  1
40
  0
ENDBLK
  0
BLOCK
  2
-011-BLKF0017
 70
   64
 10
0
 20
0
 30
0
  0
ARC
  8
_0-0_0
  6
CONTINUOUS
 62
    3
 10
369.49816399999997
 20
258.52417800000001
 40
0.9499999999999998
 50
302.19597099999993
 51
237.80402900000001
  0
ARC
  8
_0-0_0
  6
CONTINUOUS
 62
    3
 10
369.49816399999997
 20
258.52417800000001
 40
1.8500000000000001
 50
302.19597099999993
 51
345.92196099999995
  0
LINE
  8
_0-0_0
  6
CONTINUOUS
 62
    3
 10
371.59816499999999
 20
258.97417799999999
 11
371.29259999999999
 21
258.97417799999999
  0
LINE
  8
_0-0_0
  6
CONTINUOUS
 62
    3
 10
371.59816499999999
 20
258.07417900000002
 11
371.29259999999999
 21
258.07417900000002
  0
LINE
  8
_0-0_0
  6
CONTINUOUS
 62
    3
 10
371.59816499999999
 20
258.97417799999999
 11
371.59816499999999
 21
263.02417800000001
  0
LINE
  8
_0-0_0
  6
CONTINUOUS
 62
    3
 10
371.59816499999999
 20
258.07417900000002
 11
371.59816499999999
 21
249.47417899999999
  0
LINE
  8
_0-0_0
  6
CONTINUOUS
 62
    3
 10
367.39816500000001
 20
258.97417799999999
 11
367.39816500000001
 21
263.02417800000001
  0
LINE
  8
_0-0_0
  6
CONTINUOUS
 62
    3
 10
367.39816500000001
 20
258.07417900000002
 11
367.39816500000001
 21
249.47417899999999
  0
LINE
  8
_0-0_0
  6
CONTINUOUS
 62
    3
 10
367.70372900000001
 20
258.97417799999999
 11
367.39816500000001
 21
258.97417799999999
  0
LINE
  8
_0-0_0
  6
CONTINUOUS
 62
    3
 10
367.70372900000001
 20
258.07417900000002
 11
367.39816500000001
 21
258.07417900000002
  0
ARC
  8
_0-0_0
  6
CONTINUOUS
 62
    3
 10
369.49816399999997
 20
258.52417800000001
 40
1.8500000000000001
 50
14.078039
 51
165.92196100000001
  0
ARC
  8
_0-0_0
  6
CONTINUOUS
 62
    3
 10
369.49816399999997
 20
258.52417800000001
 40
1.8500000000000001
 50
194.07803899999996
 51
237.80402899999999
  0
ARC
  8
_0-0_0
  6
CONTINUOUS
 62
    3
 10
368.72934900000001
 20
257.353857
 40
0.450811
 50
241.24131599999996
 51
54.366742999999985
  0
ARC
  8
_0-0_0
  6
CONTINUOUS
 62
    3
 10
370.26697999999999
 20
257.353857
 40
0.450811
 50
125.633257
 51
298.75868400000002
  0
ARC
  8
_0-0_0
  6
CONTINUOUS
 62
    3
 10
369.49816399999997
 20
249.02417800000001
 40
0.9499999999999998
 50
122.19597099999996
 51
57.804029000000014
  0
ARC
  8
_0-0_0
  6
CONTINUOUS
 62
    3
 10
369.49816399999997
 20
249.02417800000001
 40
1.8500000000000001
 50
14.078039
 51
57.804028999999993
  0
LINE
  8
_0-0_0
  6
CONTINUOUS
 62
    3
 10
371.59816499999999
 20
248.57417799999999
 11
371.29259999999999
 21
248.57417799999999
  0
LINE
  8
_0-0_0
  6
CONTINUOUS
 62
    3
 10
371.59816499999999
 20
249.47417899999999
 11
371.29259999999999
 21
249.47417899999999
  0
LINE
  8
_0-0_0
  6
CONTINUOUS
 62
    3
 10
367.70372900000001
 20
248.57417799999999
 11
367.39816500000001
 21
248.57417799999999
  0
LINE
  8
_0-0_0
  6
CONTINUOUS
 62
    3
 10
367.70372900000001
 20
249.47417899999999
 11
367.39816500000001
 21
249.47417899999999
  0
ARC
  8
_0-0_0
  6
CONTINUOUS
 62
    3
 10
369.49816399999997
 20
249.02417800000001
 40
1.8500000000000001
 50
194.07803899999996
 51
345.92196099999995
  0
ARC
  8
_0-0_0
  6
CONTINUOUS
 62
    3
 10
369.49816399999997
 20
249.02417800000001
 40
1.8500000000000001
 50
122.195971
 51
165.92196100000001
  0
ARC
  8
_0-0_0
  6
CONTINUOUS
 62
    3
 10
368.72934900000001
 20
250.19449900000001
 40
0.450811
 50
305.63325700000007
 51
118.75868400000002
  0
ARC
  8
_0-0_0
  6
CONTINUOUS
 62
    3
 10
370.26697999999999
 20
250.19449900000001
 40
0.450811
 50
61.241315999999998
 51
234.36674299999999
  0
LINE
  8
_0-0_0
  6
CONTINUOUS
 62
    3
 10
371.59816499999999
 20
248.57417799999999
 11
371.59816499999999
 21
244.52417800000001
  0
LINE
  8
_0-0_0
  6
CONTINUOUS
 62
    3
 10
367.39816500000001
 20
248.57417799999999
 11
367.39816500000001
 21
244.52417800000001
  0
POINT
  8
_0-0_0
 62
    3
 10
369.49816399999997
 20
258.52417800000001
  0
LINE
  8
_0-0_0
  6
CONTINUOUS
 62
    3
 10
373.49816399999997
 20
263.77417800000001
 11
371.18117699999999
 21
263.77417800000001
  0
LINE
  8
_0-0_0
  6
CONTINUOUS
 62
    3
 10
365.49816399999997
 20
263.77417800000001
 11
367.81515300000001
 21
263.77417800000001
  0
LINE
  8
_0-0_0
  6
CONTINUOUS
 62
    3
 10
371.59816499999999
 20
263.02417800000001
 11
370.74816399999997
 21
263.02417800000001
  0
LINE
  8
_0-0_0
  6
CONTINUOUS
 62
    3
 10
370.74816399999997
 20
263.02417800000001
 11
371.18117699999999
 21
263.77417800000001
  0
LINE
  8
_0-0_0
  6
CONTINUOUS
 62
    3
 10
368.24816399999997
 20
263.02417800000001
 11
367.81515300000001
 21
263.77417800000001
  0
LINE
  8
_0-0_0
  6
CONTINUOUS
 62
    3
 10
367.39816500000001
 20
263.02417800000001
 11
368.24816399999997
 21
263.02417800000001
  0
LINE
  8
_0-0_0
  6
CONTINUOUS
 62
    3
 10
372.34816499999999
 20
243.77417800000001
 11
371.18117699999999
 21
243.77417800000001
  0
LINE
  8
_0-0_0
  6
CONTINUOUS
 62
    3
 10
366.64816500000001
 20
243.77417800000001
 11
367.81515300000001
 21
243.77417800000001
  0
LINE
  8
_0-0_0
  6
CONTINUOUS
 62
    3
 10
371.59816499999999
 20
244.52417800000001
 11
370.74816399999997
 21
244.52417800000001
  0
LINE
  8
_0-0_0
  6
CONTINUOUS
 62
    3
 10
370.74816399999997
 20
244.52417800000001
 11
371.18117699999999
 21
243.77417800000001
  0
LINE
  8
_0-0_0
  6
CONTINUOUS
 62
    3
 10
368.24816399999997
 20
244.52417800000001
 11
367.81515300000001
 21
243.77417800000001
  0
LINE
  8
_0-0_0
  6
CONTINUOUS
 62
    3
 10
367.39816500000001
 20
244.52417800000001
 11
368.24816399999997
 21
244.52417800000001
  0
ENDBLK
  0
BLOCK
  2
-012-BLKF0018
 70
   64
 10
0
 20
0
 30
0
  0
LINE
  8
_0-0_0
  6
CONTINUOUS
 62
    5
 10
397.72139800000002
 20
40.705570000000002
 11
405.841881
 21
40.705570000000002
  0
LINE
  8
_0-0_0
  6
CONTINUOUS
 62
    5
 10
397.72139800000002
 20
263.77417800000001
 11
405.841881
 21
263.77417800000001
  0
LINE
  8
_0-0_0
  6
CONTINUOUS
 62
    5
 10
404.841881
 20
40.705570000000002
 11
404.841881
 21
263.77417800000001
  0
LINE
  8
_0-0_0
  6
CONTINUOUS
 62
    5
 10
404.841881
 20
40.705570000000002
 11
404.841881
 21
41.705570000000002
  0
CIRCLE
  8
_0-0_0
  6
CONTINUOUS
 62
    5
 10
404.841881
 20
40.705570000000002
 40
0.5
  0
CIRCLE
  8
_0-0_0
  6
CONTINUOUS
 62
    5
 10
404.841881
 20
40.705570000000002
 40
0.25
  0
LINE
  8
_0-0_0
  6
CONTINUOUS
 62
    5
 10
404.841881
 20
263.77417800000001
 11
404.841881
 21
262.77417800000001
  0
CIRCLE
  8
_0-0_0
  6
CONTINUOUS
 62
    5
 10
404.841881
 20
263.77417800000001
 40
0.5
  0
CIRCLE
  8
_0-0_0
  6
CONTINUOUS
 62
    5
 10
404.841881
 20
263.77417800000001
 40
0.25
  0
ENDBLK
  0
BLOCK
  2
-013-BLKF0019
 70
   64
 10
0
 20
0
 30
0
  0
ARC
  8
_0-0_0
  6
CONTINUOUS
 62
    3
 10
369.49816399999997
 20
45.955570000000002
 40
0.9499999999999998
 50
122.19597099999996
 51
57.804029000000014
  0
ARC
  8
_0-0_0
  6
CONTINUOUS
 62
    3
 10
369.49816399999997
 20
45.955570000000002
 40
1.8500000000000001
 50
14.078039
 51
57.804028999999993
  0
LINE
  8
_0-0_0
  6
CONTINUOUS
 62
    3
 10
371.59816499999999
 20
45.505569999999999
 11
371.29259999999999
 21
45.505569999999999
  0
LINE
  8
_0-0_0
  6
CONTINUOUS
 62
    3
 10
371.59816499999999
 20
46.405569
 11
371.29259999999999
 21
46.405569
  0
LINE
  8
_0-0_0
  6
CONTINUOUS
 62
    3
 10
371.59816499999999
 20
45.505569999999999
 11
371.59816499999999
 21
41.455570000000002
  0
LINE
  8
_0-0_0
  6
CONTINUOUS
 62
    3
 10
371.59816499999999
 20
46.405569
 11
371.59816499999999
 21
55.005569000000001
  0
LINE
  8
_0-0_0
  6
CONTINUOUS
 62
    3
 10
367.39816500000001
 20
45.505569999999999
 11
367.39816500000001
 21
41.455570000000002
  0
LINE
  8
_0-0_0
  6
CONTINUOUS
 62
    3
 10
367.39816500000001
 20
46.405569
 11
367.39816500000001
 21
55.005569000000001
  0
LINE
  8
_0-0_0
  6
CONTINUOUS
 62
    3
 10
367.70372900000001
 20
45.505569999999999
 11
367.39816500000001
 21
45.505569999999999
  0
LINE
  8
_0-0_0
  6
CONTINUOUS
 62
    3
 10
367.70372900000001
 20
46.405569
 11
367.39816500000001
 21
46.405569
  0
ARC
  8
_0-0_0
  6
CONTINUOUS
 62
    3
 10
369.49816399999997
 20
45.955570000000002
 40
1.8500000000000001
 50
194.07803899999996
 51
345.92196099999995
  0
ARC
  8
_0-0_0
  6
CONTINUOUS
 62
    3
 10
369.49816399999997
 20
45.955570000000002
 40
1.8500000000000001
 50
122.195971
 51
165.92196100000001
  0
ARC
  8
_0-0_0
  6
CONTINUOUS
 62
    3
 10
368.72934900000001
 20
47.125892
 40
0.450811
 50
305.63325700000007
 51
118.75868400000002
  0
ARC
  8
_0-0_0
  6
CONTINUOUS
 62
    3
 10
370.26697999999999
 20
47.125892
 40
0.450811
 50
61.241315999999998
 51
234.36674299999999
  0
ARC
  8
_0-0_0
  6
CONTINUOUS
 62
    3
 10
369.49816399999997
 20
55.455568999999997
 40
0.9499999999999998
 50
302.19597099999993
 51
237.80402900000001
  0
ARC
  8
_0-0_0
  6
CONTINUOUS
 62
    3
 10
369.49816399999997
 20
55.455568999999997
 40
1.8500000000000001
 50
302.19597099999993
 51
345.92196099999995
  0
LINE
  8
_0-0_0
  6
CONTINUOUS
 62
    3
 10
371.59816499999999
 20
55.905569
 11
371.29259999999999
 21
55.905569
  0
LINE
  8
_0-0_0
  6
CONTINUOUS
 62
    3
 10
371.59816499999999
 20
55.005569000000001
 11
371.29259999999999
 21
55.005569000000001
  0
LINE
  8
_0-0_0
  6
CONTINUOUS
 62
    3
 10
367.70372900000001
 20
55.905569
 11
367.39816500000001
 21
55.905569
  0
LINE
  8
_0-0_0
  6
CONTINUOUS
 62
    3
 10
367.70372900000001
 20
55.005569000000001
 11
367.39816500000001
 21
55.005569000000001
  0
ARC
  8
_0-0_0
  6
CONTINUOUS
 62
    3
 10
369.49816399999997
 20
55.455568999999997
 40
1.8500000000000001
 50
14.078039
 51
165.92196100000001
  0
ARC
  8
_0-0_0
  6
CONTINUOUS
 62
    3
 10
369.49816399999997
 20
55.455568999999997
 40
1.8500000000000001
 50
194.07803899999996
 51
237.80402899999999
  0
ARC
  8
_0-0_0
  6
CONTINUOUS
 62
    3
 10
368.72934900000001
 20
54.285248000000003
 40
0.450811
 50
241.24131599999996
 51
54.366742999999985
  0
ARC
  8
_0-0_0
  6
CONTINUOUS
 62
    3
 10
370.26697999999999
 20
54.285248000000003
 40
0.450811
 50
125.633257
 51
298.75868400000002
  0
LINE
  8
_0-0_0
  6
CONTINUOUS
 62
    3
 10
371.59816499999999
 20
55.905569
 11
371.59816499999999
 21
59.955568999999997
  0
LINE
  8
_0-0_0
  6
CONTINUOUS
 62
    3
 10
367.39816500000001
 20
55.905569
 11
367.39816500000001
 21
59.955568999999997
  0
POINT
  8
_0-0_0
 62
    3
 10
369.49816399999997
 20
45.955570000000002
  0
LINE
  8
_0-0_0
  6
CONTINUOUS
 62
    3
 10
373.49816399999997
 20
40.705570000000002
 11
365.49816399999997
 21
40.705570000000002
  0
LINE
  8
_0-0_0
  6
CONTINUOUS
 62
    3
 10
371.59816499999999
 20
41.455570000000002
 11
370.74816399999997
 21
41.455570000000002
  0
LINE
  8
_0-0_0
  6
CONTINUOUS
 62
    3
 10
370.74816399999997
 20
41.455570000000002
 11
371.18117699999999
 21
40.705570000000002
  0
LINE
  8
_0-0_0
  6
CONTINUOUS
 62
    3
 10
368.24816399999997
 20
41.455570000000002
 11
367.81515300000001
 21
40.705570000000002
  0
LINE
  8
_0-0_0
  6
CONTINUOUS
 62
    3
 10
367.39816500000001
 20
41.455570000000002
 11
368.24816399999997
 21
41.455570000000002
  0
LINE
  8
_0-0_0
  6
CONTINUOUS
 62
    3
 10
372.34816499999999
 20
60.705568999999997
 11
371.18117699999999
 21
60.705568999999997
  0
LINE
  8
_0-0_0
  6
CONTINUOUS
 62
    3
 10
366.64816500000001
 20
60.705568999999997
 11
367.81515300000001
 21
60.705568999999997
  0
LINE
  8
_0-0_0
  6
CONTINUOUS
 62
    3
 10
371.59816499999999
 20
59.955568999999997
 11
370.74816399999997
 21
59.955568999999997
  0
LINE
  8
_0-0_0
  6
CONTINUOUS
 62
    3
 10
370.74816399999997
 20
59.955568999999997
 11
371.18117699999999
 21
60.705568999999997
  0
LINE
  8
_0-0_0
  6
CONTINUOUS
 62
    3
 10
368.24816399999997
 20
59.955568999999997
 11
367.81515300000001
 21
60.705568999999997
  0
LINE
  8
_0-0_0
  6
CONTINUOUS
 62
    3
 10
367.39816500000001
 20
59.955568999999997
 11
368.24816399999997
 21
59.955568999999997
  0
ENDBLK
  0
BLOCK
  2
-014-BLKF0020
 70
   64
 10
0
 20
0
 30
0
  0
TEXT
  8
_0-0_0
 62
    7
 10
326.03851300000002
 20
178.49023399999999
 40
3.2200000000000002
 41
0.681289
 50
0
  1
ボ-ド（ケイカル板　ｔ；5.0）
  0
LINE
  8
_0-0_0
  6
CONTINUOUS
 62
    5
 10
367.97082899999998
 20
189.07056800000001
 11
361.13853899999998
 21
177.49023500000001
  0
LINE
  8
_0-0_0
  6
CONTINUOUS
 62
    5
 10
367.97082899999998
 20
189.07056800000001
 11
366.44639999999998
 21
186.48675
  0
LINE
  8
_0-0_0
  6
CONTINUOUS
 62
    5
 10
367.97082899999998
 20
189.07056800000001
 11
365.57960300000002
 21
186.96934300000001
  0
LINE
  8
_0-0_0
  6
CONTINUOUS
 62
    5
 10
367.97082899999998
 20
189.07056800000001
 11
367.16708499999999
 21
186.18024
  0
LINE
  8
_0-0_0
  6
CONTINUOUS
 62
    5
 10
361.13853899999998
 20
177.49023500000001
 11
325.03853900000001
 21
177.49023500000001
  0
ENDBLK
  0
BLOCK
  2
-015-BLKF0021
 70
   64
 10
0
 20
0
 30
0
  0
TEXT
  8
_0-3_CSLAYER12
 62
    7
 10
136.629471
 20
195.952606
 40
3.2200000000000002
 41
0.681289
 50
0
  1
ボ-ド（ケイカル板　ｔ；5.0）
  0
LINE
  8
_0-3_CSLAYER12
  6
CONTINUOUS
 62
    5
 10
194.633894
 20
169.500058
 11
171.72944899999999
 21
194.95261300000001
  0
LINE
  8
_0-3_CSLAYER12
  6
CONTINUOUS
 62
    5
 10
194.633894
 20
169.500058
 11
192.627138
 21
171.730064
  0
LINE
  8
_0-3_CSLAYER12
  6
CONTINUOUS
 62
    5
 10
194.633894
 20
169.500058
 11
193.272684
 21
172.17346599999999
  0
LINE
  8
_0-3_CSLAYER12
  6
CONTINUOUS
 62
    5
 10
194.633894
 20
169.500058
 11
192.118348
 21
171.134693
  0
LINE
  8
_0-3_CSLAYER12
  6
CONTINUOUS
 62
    5
 10
171.72944899999999
 20
194.95261300000001
 11
135.629448
 21
194.95261300000001
  0
ENDBLK
  0
BLOCK
  2
-016-BLKF0022
 70
   64
 10
0
 20
0
 30
0
  0
LINE
  8
_0-3_CSLAYER12
  6
CONTINUOUS
 62
    5
 10
214.27262400000001
 20
136.641899
 11
223.023967
 21
136.641899
  0
LINE
  8
_0-3_CSLAYER12
  6
CONTINUOUS
 62
    5
 10
214.27262400000001
 20
170.7919
 11
223.023967
 21
170.7919
  0
LINE
  8
_0-3_CSLAYER12
  6
CONTINUOUS
 62
    5
 10
222.023967
 20
136.641899
 11
222.023967
 21
170.7919
  0
LINE
  8
_0-3_CSLAYER12
  6
CONTINUOUS
 62
    5
 10
222.023967
 20
136.641899
 11
222.023967
 21
137.641899
  0
CIRCLE
  8
_0-3_CSLAYER12
  6
CONTINUOUS
 62
    5
 10
222.023967
 20
136.641899
 40
0.5
  0
CIRCLE
  8
_0-3_CSLAYER12
  6
CONTINUOUS
 62
    5
 10
222.023967
 20
136.641899
 40
0.25
  0
LINE
  8
_0-3_CSLAYER12
  6
CONTINUOUS
 62
    5
 10
222.023967
 20
170.7919
 11
222.023967
 21
169.7919
  0
CIRCLE
  8
_0-3_CSLAYER12
  6
CONTINUOUS
 62
    5
 10
222.023967
 20
170.7919
 40
0.5
  0
CIRCLE
  8
_0-3_CSLAYER12
  6
CONTINUOUS
 62
    5
 10
222.023967
 20
170.7919
 40
0.25
  0
TEXT
  8
_0-3_CSLAYER12
 62
    7
 10
221.02397199999999
 20
152.74189799999999
 40
3.2200000000000002
 41
0.6055899999999998
 50
90
  1
*
  0
ENDBLK
  0
BLOCK
  2
-017-BLKF0023
 70
   64
 10
0
 20
0
 30
0
  0
TEXT
  8
_0-3_CSLAYER12
 62
    7
 10
157.90921
 20
187.42666600000001
 40
3.2200000000000002
 41
0.6762419999999999
 50
0
  1
避難文字（印刷）
  0
LINE
  8
_0-3_CSLAYER12
  6
CONTINUOUS
 62
    5
 10
189.27541400000001
 20
168.558063
 11
175.128489
 21
186.557537
  0
LINE
  8
_0-3_CSLAYER12
  6
CONTINUOUS
 62
    5
 10
189.27541400000001
 20
168.558063
 11
187.42158599999999
 21
170.91673299999999
  0
LINE
  8
_0-3_CSLAYER12
  6
CONTINUOUS
 62
    5
 10
189.27541400000001
 20
168.558063
 11
188.09522200000001
 21
171.31617
  0
LINE
  8
_0-3_CSLAYER12
  6
CONTINUOUS
 62
    5
 10
189.27541400000001
 20
168.558063
 11
186.87428499999999
 21
170.35655800000001
  0
LINE
  8
_0-3_CSLAYER12
  6
CONTINUOUS
 62
    5
 10
175.128489
 20
186.557537
 11
157.159299
 21
186.557537
  0
ENDBLK
  0
BLOCK
  2
-018-BLKF0024
 70
   64
 10
0
 20
0
 30
0
  0
LINE
  8
_0-3_CSLAYER12
  6
CONTINUOUS
 62
    7
 10
212.835003
 20
171.079399
 11
213.08398500000001
 21
170.93564900000001
  0
LINE
  8
_0-3_CSLAYER12
  6
CONTINUOUS
 62
    7
 10
213.08398500000001
 20
170.93564900000001
 11
213.08398500000001
 21
170.64814899999999
  0
LINE
  8
_0-3_CSLAYER12
  6
CONTINUOUS
 62
    7
 10
213.08398500000001
 20
170.64814899999999
 11
212.835003
 21
170.50439900000001
  0
LINE
  8
_0-3_CSLAYER12
  6
CONTINUOUS
 62
    7
 10
212.835003
 20
170.50439900000001
 11
212.58602099999999
 21
170.64814899999999
  0
LINE
  8
_0-3_CSLAYER12
  6
CONTINUOUS
 62
    7
 10
212.58602099999999
 20
170.64814899999999
 11
212.58602099999999
 21
170.93564900000001
  0
LINE
  8
_0-3_CSLAYER12
  6
CONTINUOUS
 62
    7
 10
212.58602099999999
 20
170.93564900000001
 11
212.835003
 21
171.079399
  0
CIRCLE
  8
_0-3_CSLAYER12
  6
CONTINUOUS
 62
    7
 10
212.835003
 20
170.7919
 40
0.248982
  0
ENDBLK
  0
BLOCK
  2
-019-BLKF0025
 70
   64
 10
0
 20
0
 30
0
  0
LINE
  8
_0-3_CSLAYER12
  6
CONTINUOUS
 62
    7
 10
216.33192500000001
 20
171.15977100000001
 11
216.18254099999999
 21
171.146198
  0
LINE
  8
_0-3_CSLAYER12
  6
CONTINUOUS
 62
    7
 10
216.33192500000001
 20
171.15977100000001
 11
216.356821
 21
170.88579799999999
  0
LINE
  8
_0-3_CSLAYER12
  6
CONTINUOUS
 62
    7
 10
216.35907399999999
 20
170.88600199999999
 11
215.60989900000001
 21
170.817925
  0
LINE
  8
_0-3_CSLAYER12
  6
CONTINUOUS
 62
    7
 10
215.585003
 20
171.09189900000001
 11
214.585003
 21
171.09189900000001
  0
POINT
  8
_0-3_CSLAYER12
 62
    4
 10
216.20968999999999
 20
170.87242800000001
  0
POINT
  8
_0-3_CSLAYER12
 62
    4
 10
216.060305
 20
170.85885300000001
  0
POINT
  8
_0-3_CSLAYER12
 62
    4
 10
215.910921
 20
170.845279
  0
POINT
  8
_0-3_CSLAYER12
 62
    4
 10
215.76153600000001
 20
170.831706
  0
LINE
  8
_0-3_CSLAYER12
  6
CONTINUOUS
 62
    7
 10
216.058052
 20
170.85864900000001
 11
216.03315599999999
 21
171.132623
  0
LINE
  8
_0-3_CSLAYER12
  6
CONTINUOUS
 62
    7
 10
216.18254099999999
 20
171.146198
 11
216.03768099999999
 21
171.08282800000001
  0
LINE
  8
_0-3_CSLAYER12
  6
CONTINUOUS
 62
    7
 10
215.90866800000001
 20
170.84507400000001
 11
215.88377199999999
 21
171.11904799999999
  0
LINE
  8
_0-3_CSLAYER12
  6
CONTINUOUS
 62
    7
 10
216.03315599999999
 20
171.132623
 11
215.88829699999999
 21
171.069253
  0
LINE
  8
_0-3_CSLAYER12
  6
CONTINUOUS
 62
    7
 10
215.75928300000001
 20
170.83150000000001
 11
215.734387
 21
171.10547399999999
  0
LINE
  8
_0-3_CSLAYER12
  6
CONTINUOUS
 62
    7
 10
215.88377199999999
 20
171.11904799999999
 11
215.738912
 21
171.05568
  0
LINE
  8
_0-3_CSLAYER12
  6
CONTINUOUS
 62
    7
 10
216.18254099999999
 20
171.146198
 11
216.207437
 21
170.87222299999999
  0
LINE
  8
_0-3_CSLAYER12
  6
CONTINUOUS
 62
    7
 10
215.734387
 20
171.10547399999999
 11
215.585003
 21
171.09189900000001
  0
LINE
  8
_0-3_CSLAYER12
  6
CONTINUOUS
 62
    7
 10
216.48500300000001
 20
171.0419
 11
216.48500300000001
 21
170.7919
  0
LINE
  8
_0-3_CSLAYER12
  6
CONTINUOUS
 62
    7
 10
216.48500300000001
 20
171.0419
 11
216.342636
 21
171.016899
  0
LINE
  8
_0-3_CSLAYER12
  6
CONTINUOUS
 62
    7
 10
215.60989900000001
 20
170.817925
 11
215.60989900000001
 21
170.7919
  0
LINE
  8
_0-3_CSLAYER12
  6
CONTINUOUS
 62
    7
 10
216.33192500000001
 20
170.424027
 11
216.18254099999999
 21
170.437602
  0
LINE
  8
_0-3_CSLAYER12
  6
CONTINUOUS
 62
    7
 10
216.33192500000001
 20
170.424027
 11
216.356821
 21
170.698001
  0
LINE
  8
_0-3_CSLAYER12
  6
CONTINUOUS
 62
    7
 10
216.35907399999999
 20
170.69779600000001
 11
215.60989900000001
 21
170.765874
  0
LINE
  8
_0-3_CSLAYER12
  6
CONTINUOUS
 62
    7
 10
215.585003
 20
170.49189899999999
 11
214.585003
 21
170.49189899999999
  0
POINT
  8
_0-3_CSLAYER12
 62
    4
 10
216.20968999999999
 20
170.71136999999999
  0
POINT
  8
_0-3_CSLAYER12
 62
    4
 10
216.060305
 20
170.72494499999999
  0
POINT
  8
_0-3_CSLAYER12
 62
    4
 10
215.910921
 20
170.73851999999999
  0
POINT
  8
_0-3_CSLAYER12
 62
    4
 10
215.76153600000001
 20
170.752095
  0
LINE
  8
_0-3_CSLAYER12
  6
CONTINUOUS
 62
    7
 10
216.058052
 20
170.72515000000001
 11
216.03315599999999
 21
170.451176
  0
LINE
  8
_0-3_CSLAYER12
  6
CONTINUOUS
 62
    7
 10
216.18254099999999
 20
170.437602
 11
216.03768099999999
 21
170.50097099999999
  0
LINE
  8
_0-3_CSLAYER12
  6
CONTINUOUS
 62
    7
 10
215.90866800000001
 20
170.73872399999999
 11
215.88377199999999
 21
170.46475000000001
  0
LINE
  8
_0-3_CSLAYER12
  6
CONTINUOUS
 62
    7
 10
216.03315599999999
 20
170.451176
 11
215.88829699999999
 21
170.514546
  0
LINE
  8
_0-3_CSLAYER12
  6
CONTINUOUS
 62
    7
 10
215.75928300000001
 20
170.752298
 11
215.734387
 21
170.47832500000001
  0
LINE
  8
_0-3_CSLAYER12
  6
CONTINUOUS
 62
    7
 10
215.88377199999999
 20
170.46475000000001
 11
215.738912
 21
170.528121
  0
LINE
  8
_0-3_CSLAYER12
  6
CONTINUOUS
 62
    7
 10
216.18254099999999
 20
170.437602
 11
216.207437
 21
170.71157500000001
  0
LINE
  8
_0-3_CSLAYER12
  6
CONTINUOUS
 62
    7
 10
215.734387
 20
170.47832500000001
 11
215.585003
 21
170.49189899999999
  0
LINE
  8
_0-3_CSLAYER12
  6
CONTINUOUS
 62
    7
 10
216.48500300000001
 20
170.5419
 11
216.48500300000001
 21
170.7919
  0
LINE
  8
_0-3_CSLAYER12
  6
CONTINUOUS
 62
    7
 10
216.48500300000001
 20
170.5419
 11
216.342636
 21
170.56689900000001
  0
LINE
  8
_0-3_CSLAYER12
  6
CONTINUOUS
 62
    7
 10
215.60989900000001
 20
170.49189899999999
 11
215.60989900000001
 21
171.09416100000001
  0
ENDBLK
  0
BLOCK
  2
-020-BLKF0026
 70
   64
 10
0
 20
0
 30
0
  0
ARC
  8
_0-3_CSLAYER12
  6
CONTINUOUS
 62
    7
 10
214.03582
 20
170.51065
 40
0.125817
 50
131.82972699999999
 51
228.17028799999997
  0
ARC
  8
_0-3_CSLAYER12
  6
CONTINUOUS
 62
    7
 10
214.35041000000001
 20
170.7919
 40
0.4404069999999998
 50
154.80233799999999
 51
205.19766200000004
  0
ARC
  8
_0-3_CSLAYER12
  6
CONTINUOUS
 62
    7
 10
214.03582
 20
171.07315
 40
0.125817
 50
131.82972699999999
 51
228.17027299999995
  0
LINE
  8
_0-3_CSLAYER12
  6
CONTINUOUS
 62
    7
 10
213.95191
 20
170.4169
 11
214.335003
 21
170.4169
  0
LINE
  8
_0-3_CSLAYER12
  6
CONTINUOUS
 62
    7
 10
214.335003
 20
171.1669
 11
213.95191
 21
171.1669
  0
LINE
  8
_0-3_CSLAYER12
  6
CONTINUOUS
 62
    7
 10
213.91000299999999
 20
170.51065
 11
213.91000299999999
 21
171.07315
  0
LINE
  8
_0-3_CSLAYER12
  6
CONTINUOUS
 62
    7
 10
213.95191
 20
170.9794
 11
214.23500300000001
 21
170.9794
  0
LINE
  8
_0-3_CSLAYER12
  6
CONTINUOUS
 62
    7
 10
213.95191
 20
170.6044
 11
214.23500300000001
 21
170.6044
  0
LINE
  8
_0-3_CSLAYER12
  6
CONTINUOUS
 62
    7
 10
214.23500300000001
 20
170.4169
 11
214.23500300000001
 21
171.1669
  0
POINT
  8
_0-3_CSLAYER12
 62
    7
 10
214.43500299999999
 20
170.7919
  0
LINE
  8
_0-3_CSLAYER12
  6
CONTINUOUS
 62
    7
 10
214.335003
 20
170.36689899999999
 11
214.43500299999999
 21
170.36689899999999
  0
LINE
  8
_0-3_CSLAYER12
  6
CONTINUOUS
 62
    7
 10
214.335003
 20
171.21689900000001
 11
214.43500299999999
 21
171.21689900000001
  0
LINE
  8
_0-3_CSLAYER12
  6
CONTINUOUS
 62
    7
 10
214.335003
 20
170.36689899999999
 11
214.335003
 21
171.21689900000001
  0
LINE
  8
_0-3_CSLAYER12
  6
CONTINUOUS
 62
    7
 10
214.23500300000001
 20
170.761664
 11
214.335003
 21
170.87406100000001
  0
LINE
  8
_0-3_CSLAYER12
  6
CONTINUOUS
 62
    7
 10
214.23500300000001
 20
170.71965700000001
 11
214.335003
 21
170.832055
  0
ENDBLK
  0
BLOCK
  2
-021-BLKF0027
 70
   64
 10
0
 20
0
 30
0
  0
LINE
  8
_0-3_CSLAYER12
  6
CONTINUOUS
 62
    7
 10
212.835003
 20
136.92939899999999
 11
213.08398500000001
 21
136.78564900000001
  0
LINE
  8
_0-3_CSLAYER12
  6
CONTINUOUS
 62
    7
 10
213.08398500000001
 20
136.78564900000001
 11
213.08398500000001
 21
136.49814900000001
  0
LINE
  8
_0-3_CSLAYER12
  6
CONTINUOUS
 62
    7
 10
213.08398500000001
 20
136.49814900000001
 11
212.835003
 21
136.3544
  0
LINE
  8
_0-3_CSLAYER12
  6
CONTINUOUS
 62
    7
 10
212.835003
 20
136.3544
 11
212.58602099999999
 21
136.49814900000001
  0
LINE
  8
_0-3_CSLAYER12
  6
CONTINUOUS
 62
    7
 10
212.58602099999999
 20
136.49814900000001
 11
212.58602099999999
 21
136.78564900000001
  0
LINE
  8
_0-3_CSLAYER12
  6
CONTINUOUS
 62
    7
 10
212.58602099999999
 20
136.78564900000001
 11
212.835003
 21
136.92939899999999
  0
CIRCLE
  8
_0-3_CSLAYER12
  6
CONTINUOUS
 62
    7
 10
212.835003
 20
136.641899
 40
0.248982
  0
ENDBLK
  0
BLOCK
  2
-022-BLKF0028
 70
   64
 10
0
 20
0
 30
0
  0
LINE
  8
_0-3_CSLAYER12
  6
CONTINUOUS
 62
    7
 10
216.33192500000001
 20
137.009772
 11
216.18254099999999
 21
136.996197
  0
LINE
  8
_0-3_CSLAYER12
  6
CONTINUOUS
 62
    7
 10
216.33192500000001
 20
137.009772
 11
216.356821
 21
136.73579799999999
  0
LINE
  8
_0-3_CSLAYER12
  6
CONTINUOUS
 62
    7
 10
216.35907399999999
 20
136.73600200000001
 11
215.60989900000001
 21
136.66792599999999
  0
LINE
  8
_0-3_CSLAYER12
  6
CONTINUOUS
 62
    7
 10
215.585003
 20
136.94189900000001
 11
214.585003
 21
136.94189900000001
  0
POINT
  8
_0-3_CSLAYER12
 62
    4
 10
216.20968999999999
 20
136.72242800000001
  0
POINT
  8
_0-3_CSLAYER12
 62
    4
 10
216.060305
 20
136.708853
  0
POINT
  8
_0-3_CSLAYER12
 62
    4
 10
215.910921
 20
136.69528
  0
POINT
  8
_0-3_CSLAYER12
 62
    4
 10
215.76153600000001
 20
136.68170499999999
  0
LINE
  8
_0-3_CSLAYER12
  6
CONTINUOUS
 62
    7
 10
216.058052
 20
136.70864900000001
 11
216.03315599999999
 21
136.98262199999999
  0
LINE
  8
_0-3_CSLAYER12
  6
CONTINUOUS
 62
    7
 10
216.18254099999999
 20
136.996197
 11
216.03768099999999
 21
136.932829
  0
LINE
  8
_0-3_CSLAYER12
  6
CONTINUOUS
 62
    7
 10
215.90866800000001
 20
136.69507400000001
 11
215.88377199999999
 21
136.96904799999999
  0
LINE
  8
_0-3_CSLAYER12
  6
CONTINUOUS
 62
    7
 10
216.03315599999999
 20
136.98262199999999
 11
215.88829699999999
 21
136.919254
  0
LINE
  8
_0-3_CSLAYER12
  6
CONTINUOUS
 62
    7
 10
215.75928300000001
 20
136.681501
 11
215.734387
 21
136.95547400000001
  0
LINE
  8
_0-3_CSLAYER12
  6
CONTINUOUS
 62
    7
 10
215.88377199999999
 20
136.96904799999999
 11
215.738912
 21
136.90567899999999
  0
LINE
  8
_0-3_CSLAYER12
  6
CONTINUOUS
 62
    7
 10
216.18254099999999
 20
136.996197
 11
216.207437
 21
136.72222300000001
  0
LINE
  8
_0-3_CSLAYER12
  6
CONTINUOUS
 62
    7
 10
215.734387
 20
136.95547400000001
 11
215.585003
 21
136.94189900000001
  0
LINE
  8
_0-3_CSLAYER12
  6
CONTINUOUS
 62
    7
 10
216.48500300000001
 20
136.891899
 11
216.48500300000001
 21
136.641899
  0
LINE
  8
_0-3_CSLAYER12
  6
CONTINUOUS
 62
    7
 10
216.48500300000001
 20
136.891899
 11
216.342636
 21
136.86689899999999
  0
LINE
  8
_0-3_CSLAYER12
  6
CONTINUOUS
 62
    7
 10
215.60989900000001
 20
136.66792599999999
 11
215.60989900000001
 21
136.641899
  0
LINE
  8
_0-3_CSLAYER12
  6
CONTINUOUS
 62
    7
 10
216.33192500000001
 20
136.27402699999999
 11
216.18254099999999
 21
136.287601
  0
LINE
  8
_0-3_CSLAYER12
  6
CONTINUOUS
 62
    7
 10
216.33192500000001
 20
136.27402699999999
 11
216.356821
 21
136.548002
  0
LINE
  8
_0-3_CSLAYER12
  6
CONTINUOUS
 62
    7
 10
216.35907399999999
 20
136.54779600000001
 11
215.60989900000001
 21
136.61587299999999
  0
LINE
  8
_0-3_CSLAYER12
  6
CONTINUOUS
 62
    7
 10
215.585003
 20
136.34189900000001
 11
214.585003
 21
136.34189900000001
  0
POINT
  8
_0-3_CSLAYER12
 62
    4
 10
216.20968999999999
 20
136.56137000000001
  0
POINT
  8
_0-3_CSLAYER12
 62
    4
 10
216.060305
 20
136.57494500000001
  0
POINT
  8
_0-3_CSLAYER12
 62
    4
 10
215.910921
 20
136.58851899999999
  0
POINT
  8
_0-3_CSLAYER12
 62
    4
 10
215.76153600000001
 20
136.60209399999999
  0
LINE
  8
_0-3_CSLAYER12
  6
CONTINUOUS
 62
    7
 10
216.058052
 20
136.57515000000001
 11
216.03315599999999
 21
136.301177
  0
LINE
  8
_0-3_CSLAYER12
  6
CONTINUOUS
 62
    7
 10
216.18254099999999
 20
136.287601
 11
216.03768099999999
 21
136.35097099999999
  0
LINE
  8
_0-3_CSLAYER12
  6
CONTINUOUS
 62
    7
 10
215.90866800000001
 20
136.58872400000001
 11
215.88377199999999
 21
136.31475
  0
LINE
  8
_0-3_CSLAYER12
  6
CONTINUOUS
 62
    7
 10
216.03315599999999
 20
136.301177
 11
215.88829699999999
 21
136.36454499999999
  0
LINE
  8
_0-3_CSLAYER12
  6
CONTINUOUS
 62
    7
 10
215.75928300000001
 20
136.60229799999999
 11
215.734387
 21
136.32832500000001
  0
LINE
  8
_0-3_CSLAYER12
  6
CONTINUOUS
 62
    7
 10
215.88377199999999
 20
136.31475
 11
215.738912
 21
136.37812
  0
LINE
  8
_0-3_CSLAYER12
  6
CONTINUOUS
 62
    7
 10
216.18254099999999
 20
136.287601
 11
216.207437
 21
136.561575
  0
LINE
  8
_0-3_CSLAYER12
  6
CONTINUOUS
 62
    7
 10
215.734387
 20
136.32832500000001
 11
215.585003
 21
136.34189900000001
  0
LINE
  8
_0-3_CSLAYER12
  6
CONTINUOUS
 62
    7
 10
216.48500300000001
 20
136.391899
 11
216.48500300000001
 21
136.641899
  0
LINE
  8
_0-3_CSLAYER12
  6
CONTINUOUS
 62
    7
 10
216.48500300000001
 20
136.391899
 11
216.342636
 21
136.4169
  0
LINE
  8
_0-3_CSLAYER12
  6
CONTINUOUS
 62
    7
 10
215.60989900000001
 20
136.34189900000001
 11
215.60989900000001
 21
136.94416100000001
  0
ENDBLK
  0
BLOCK
  2
-023-BLKF0029
 70
   64
 10
0
 20
0
 30
0
  0
ARC
  8
_0-3_CSLAYER12
  6
CONTINUOUS
 62
    7
 10
214.03582
 20
136.360649
 40
0.125817
 50
131.82972699999999
 51
228.17028799999997
  0
ARC
  8
_0-3_CSLAYER12
  6
CONTINUOUS
 62
    7
 10
214.35041000000001
 20
136.641899
 40
0.4404069999999998
 50
154.80233799999999
 51
205.19766200000004
  0
ARC
  8
_0-3_CSLAYER12
  6
CONTINUOUS
 62
    7
 10
214.03582
 20
136.923149
 40
0.125817
 50
131.82972699999999
 51
228.17027299999995
  0
LINE
  8
_0-3_CSLAYER12
  6
CONTINUOUS
 62
    7
 10
213.95191
 20
136.266899
 11
214.335003
 21
136.266899
  0
LINE
  8
_0-3_CSLAYER12
  6
CONTINUOUS
 62
    7
 10
214.335003
 20
137.016899
 11
213.95191
 21
137.016899
  0
LINE
  8
_0-3_CSLAYER12
  6
CONTINUOUS
 62
    7
 10
213.91000299999999
 20
136.360649
 11
213.91000299999999
 21
136.923149
  0
LINE
  8
_0-3_CSLAYER12
  6
CONTINUOUS
 62
    7
 10
213.95191
 20
136.829399
 11
214.23500300000001
 21
136.829399
  0
LINE
  8
_0-3_CSLAYER12
  6
CONTINUOUS
 62
    7
 10
213.95191
 20
136.454399
 11
214.23500300000001
 21
136.454399
  0
LINE
  8
_0-3_CSLAYER12
  6
CONTINUOUS
 62
    7
 10
214.23500300000001
 20
136.266899
 11
214.23500300000001
 21
137.016899
  0
POINT
  8
_0-3_CSLAYER12
 62
    7
 10
214.43500299999999
 20
136.641899
  0
LINE
  8
_0-3_CSLAYER12
  6
CONTINUOUS
 62
    7
 10
214.335003
 20
136.21689900000001
 11
214.43500299999999
 21
136.21689900000001
  0
LINE
  8
_0-3_CSLAYER12
  6
CONTINUOUS
 62
    7
 10
214.335003
 20
137.06689900000001
 11
214.43500299999999
 21
137.06689900000001
  0
LINE
  8
_0-3_CSLAYER12
  6
CONTINUOUS
 62
    7
 10
214.335003
 20
136.21689900000001
 11
214.335003
 21
137.06689900000001
  0
LINE
  8
_0-3_CSLAYER12
  6
CONTINUOUS
 62
    7
 10
214.23500300000001
 20
136.61166399999999
 11
214.335003
 21
136.72406100000001
  0
LINE
  8
_0-3_CSLAYER12
  6
CONTINUOUS
 62
    7
 10
214.23500300000001
 20
136.56965700000001
 11
214.335003
 21
136.68205399999999
  0
ENDBLK
  0
BLOCK
  2
-024-BLKF0030
 70
   64
 10
0
 20
0
 30
0
  0
LINE
  8
_0-3_CSLAYER12
  6
CONTINUOUS
 62
    7
 10
180.335003
 20
171.079399
 11
180.08602099999999
 21
170.93564900000001
  0
LINE
  8
_0-3_CSLAYER12
  6
CONTINUOUS
 62
    7
 10
180.08602099999999
 20
170.93564900000001
 11
180.08602099999999
 21
170.64814899999999
  0
LINE
  8
_0-3_CSLAYER12
  6
CONTINUOUS
 62
    7
 10
180.08602099999999
 20
170.64814899999999
 11
180.335003
 21
170.50439900000001
  0
LINE
  8
_0-3_CSLAYER12
  6
CONTINUOUS
 62
    7
 10
180.335003
 20
170.50439900000001
 11
180.58398500000001
 21
170.64814899999999
  0
LINE
  8
_0-3_CSLAYER12
  6
CONTINUOUS
 62
    7
 10
180.58398500000001
 20
170.64814899999999
 11
180.58398500000001
 21
170.93564900000001
  0
LINE
  8
_0-3_CSLAYER12
  6
CONTINUOUS
 62
    7
 10
180.58398500000001
 20
170.93564900000001
 11
180.335003
 21
171.079399
  0
CIRCLE
  8
_0-3_CSLAYER12
  6
CONTINUOUS
 62
    7
 10
180.335003
 20
170.7919
 40
0.248982
  0
ENDBLK
  0
BLOCK
  2
-025-BLKF0031
 70
   64
 10
0
 20
0
 30
0
  0
LINE
  8
_0-3_CSLAYER12
  6
CONTINUOUS
 62
    7
 10
176.83807999999999
 20
171.15977100000001
 11
176.98746499999999
 21
171.146198
  0
LINE
  8
_0-3_CSLAYER12
  6
CONTINUOUS
 62
    7
 10
176.83807999999999
 20
171.15977100000001
 11
176.81318400000001
 21
170.88579799999999
  0
LINE
  8
_0-3_CSLAYER12
  6
CONTINUOUS
 62
    7
 10
176.81093100000001
 20
170.88600199999999
 11
177.56010699999999
 21
170.817925
  0
LINE
  8
_0-3_CSLAYER12
  6
CONTINUOUS
 62
    7
 10
177.585003
 20
171.09189900000001
 11
178.585003
 21
171.09189900000001
  0
POINT
  8
_0-3_CSLAYER12
 62
    4
 10
176.96031600000001
 20
170.87242800000001
  0
POINT
  8
_0-3_CSLAYER12
 62
    4
 10
177.1097
 20
170.85885300000001
  0
POINT
  8
_0-3_CSLAYER12
 62
    4
 10
177.259085
 20
170.845279
  0
POINT
  8
_0-3_CSLAYER12
 62
    4
 10
177.408469
 20
170.831706
  0
LINE
  8
_0-3_CSLAYER12
  6
CONTINUOUS
 62
    7
 10
177.111954
 20
170.85864900000001
 11
177.13684900000001
 21
171.132623
  0
LINE
  8
_0-3_CSLAYER12
  6
CONTINUOUS
 62
    7
 10
176.98746499999999
 20
171.146198
 11
177.13232400000001
 21
171.08282800000001
  0
LINE
  8
_0-3_CSLAYER12
  6
CONTINUOUS
 62
    7
 10
177.26133799999999
 20
170.84507400000001
 11
177.28623400000001
 21
171.11904799999999
  0
LINE
  8
_0-3_CSLAYER12
  6
CONTINUOUS
 62
    7
 10
177.13684900000001
 20
171.132623
 11
177.28170900000001
 21
171.069253
  0
LINE
  8
_0-3_CSLAYER12
  6
CONTINUOUS
 62
    7
 10
177.41072299999999
 20
170.83150000000001
 11
177.43561800000001
 21
171.10547399999999
  0
LINE
  8
_0-3_CSLAYER12
  6
CONTINUOUS
 62
    7
 10
177.28623400000001
 20
171.11904799999999
 11
177.431093
 21
171.05568
  0
LINE
  8
_0-3_CSLAYER12
  6
CONTINUOUS
 62
    7
 10
176.98746499999999
 20
171.146198
 11
176.962569
 21
170.87222299999999
  0
LINE
  8
_0-3_CSLAYER12
  6
CONTINUOUS
 62
    7
 10
177.43561800000001
 20
171.10547399999999
 11
177.585003
 21
171.09189900000001
  0
LINE
  8
_0-3_CSLAYER12
  6
CONTINUOUS
 62
    7
 10
176.68500299999999
 20
171.0419
 11
176.68500299999999
 21
170.7919
  0
LINE
  8
_0-3_CSLAYER12
  6
CONTINUOUS
 62
    7
 10
176.68500299999999
 20
171.0419
 11
176.827369
 21
171.016899
  0
LINE
  8
_0-3_CSLAYER12
  6
CONTINUOUS
 62
    7
 10
177.56010699999999
 20
170.817925
 11
177.56010699999999
 21
170.7919
  0
LINE
  8
_0-3_CSLAYER12
  6
CONTINUOUS
 62
    7
 10
176.83807999999999
 20
170.424027
 11
176.98746499999999
 21
170.437602
  0
LINE
  8
_0-3_CSLAYER12
  6
CONTINUOUS
 62
    7
 10
176.83807999999999
 20
170.424027
 11
176.81318400000001
 21
170.698001
  0
LINE
  8
_0-3_CSLAYER12
  6
CONTINUOUS
 62
    7
 10
176.81093100000001
 20
170.69779600000001
 11
177.56010699999999
 21
170.765874
  0
LINE
  8
_0-3_CSLAYER12
  6
CONTINUOUS
 62
    7
 10
177.585003
 20
170.49189899999999
 11
178.585003
 21
170.49189899999999
  0
POINT
  8
_0-3_CSLAYER12
 62
    4
 10
176.96031600000001
 20
170.71136999999999
  0
POINT
  8
_0-3_CSLAYER12
 62
    4
 10
177.1097
 20
170.72494499999999
  0
POINT
  8
_0-3_CSLAYER12
 62
    4
 10
177.259085
 20
170.73851999999999
  0
POINT
  8
_0-3_CSLAYER12
 62
    4
 10
177.408469
 20
170.752095
  0
LINE
  8
_0-3_CSLAYER12
  6
CONTINUOUS
 62
    7
 10
177.111954
 20
170.72515000000001
 11
177.13684900000001
 21
170.451176
  0
LINE
  8
_0-3_CSLAYER12
  6
CONTINUOUS
 62
    7
 10
176.98746499999999
 20
170.437602
 11
177.13232400000001
 21
170.50097099999999
  0
LINE
  8
_0-3_CSLAYER12
  6
CONTINUOUS
 62
    7
 10
177.26133799999999
 20
170.73872399999999
 11
177.28623400000001
 21
170.46475000000001
  0
LINE
  8
_0-3_CSLAYER12
  6
CONTINUOUS
 62
    7
 10
177.13684900000001
 20
170.451176
 11
177.28170900000001
 21
170.514546
  0
LINE
  8
_0-3_CSLAYER12
  6
CONTINUOUS
 62
    7
 10
177.41072299999999
 20
170.752298
 11
177.43561800000001
 21
170.47832500000001
  0
LINE
  8
_0-3_CSLAYER12
  6
CONTINUOUS
 62
    7
 10
177.28623400000001
 20
170.46475000000001
 11
177.431093
 21
170.528121
  0
LINE
  8
_0-3_CSLAYER12
  6
CONTINUOUS
 62
    7
 10
176.98746499999999
 20
170.437602
 11
176.962569
 21
170.71157500000001
  0
LINE
  8
_0-3_CSLAYER12
  6
CONTINUOUS
 62
    7
 10
177.43561800000001
 20
170.47832500000001
 11
177.585003
 21
170.49189899999999
  0
LINE
  8
_0-3_CSLAYER12
  6
CONTINUOUS
 62
    7
 10
176.68500299999999
 20
170.5419
 11
176.68500299999999
 21
170.7919
  0
LINE
  8
_0-3_CSLAYER12
  6
CONTINUOUS
 62
    7
 10
176.68500299999999
 20
170.5419
 11
176.827369
 21
170.56689900000001
  0
LINE
  8
_0-3_CSLAYER12
  6
CONTINUOUS
 62
    7
 10
177.56010699999999
 20
170.49189899999999
 11
177.56010699999999
 21
171.09416100000001
  0
ENDBLK
  0
BLOCK
  2
-026-BLKF0032
 70
   64
 10
0
 20
0
 30
0
  0
ARC
  8
_0-3_CSLAYER12
  6
CONTINUOUS
 62
    7
 10
179.134186
 20
170.51065
 40
0.125817
 50
311.82971199999997
 51
48.170273000000066
  0
ARC
  8
_0-3_CSLAYER12
  6
CONTINUOUS
 62
    7
 10
178.81959599999999
 20
170.7919
 40
0.4404069999999998
 50
334.80233800000002
 51
25.19766199999998
  0
ARC
  8
_0-3_CSLAYER12
  6
CONTINUOUS
 62
    7
 10
179.134186
 20
171.07315
 40
0.125817
 50
311.82972699999999
 51
48.170273000000066
  0
LINE
  8
_0-3_CSLAYER12
  6
CONTINUOUS
 62
    7
 10
179.218096
 20
170.4169
 11
178.835003
 21
170.4169
  0
LINE
  8
_0-3_CSLAYER12
  6
CONTINUOUS
 62
    7
 10
178.835003
 20
171.1669
 11
179.218096
 21
171.1669
  0
LINE
  8
_0-3_CSLAYER12
  6
CONTINUOUS
 62
    7
 10
179.26000300000001
 20
170.51065
 11
179.26000300000001
 21
171.07315
  0
LINE
  8
_0-3_CSLAYER12
  6
CONTINUOUS
 62
    7
 10
179.218096
 20
170.9794
 11
178.93500299999999
 21
170.9794
  0
LINE
  8
_0-3_CSLAYER12
  6
CONTINUOUS
 62
    7
 10
179.218096
 20
170.6044
 11
178.93500299999999
 21
170.6044
  0
LINE
  8
_0-3_CSLAYER12
  6
CONTINUOUS
 62
    7
 10
178.93500299999999
 20
170.4169
 11
178.93500299999999
 21
171.1669
  0
POINT
  8
_0-3_CSLAYER12
 62
    7
 10
178.73500300000001
 20
170.7919
  0
LINE
  8
_0-3_CSLAYER12
  6
CONTINUOUS
 62
    7
 10
178.835003
 20
170.36689899999999
 11
178.73500300000001
 21
170.36689899999999
  0
LINE
  8
_0-3_CSLAYER12
  6
CONTINUOUS
 62
    7
 10
178.835003
 20
171.21689900000001
 11
178.73500300000001
 21
171.21689900000001
  0
LINE
  8
_0-3_CSLAYER12
  6
CONTINUOUS
 62
    7
 10
178.835003
 20
170.36689899999999
 11
178.835003
 21
171.21689900000001
  0
LINE
  8
_0-3_CSLAYER12
  6
CONTINUOUS
 62
    7
 10
178.93500299999999
 20
170.761664
 11
178.835003
 21
170.87406100000001
  0
LINE
  8
_0-3_CSLAYER12
  6
CONTINUOUS
 62
    7
 10
178.93500299999999
 20
170.71965700000001
 11
178.835003
 21
170.832055
  0
ENDBLK
  0
BLOCK
  2
-027-BLKF0033
 70
   64
 10
0
 20
0
 30
0
  0
LINE
  8
_0-3_CSLAYER12
  6
CONTINUOUS
 62
    7
 10
180.335003
 20
136.92939899999999
 11
180.08602099999999
 21
136.78564900000001
  0
LINE
  8
_0-3_CSLAYER12
  6
CONTINUOUS
 62
    7
 10
180.08602099999999
 20
136.78564900000001
 11
180.08602099999999
 21
136.49814900000001
  0
LINE
  8
_0-3_CSLAYER12
  6
CONTINUOUS
 62
    7
 10
180.08602099999999
 20
136.49814900000001
 11
180.335003
 21
136.3544
  0
LINE
  8
_0-3_CSLAYER12
  6
CONTINUOUS
 62
    7
 10
180.335003
 20
136.3544
 11
180.58398500000001
 21
136.49814900000001
  0
LINE
  8
_0-3_CSLAYER12
  6
CONTINUOUS
 62
    7
 10
180.58398500000001
 20
136.49814900000001
 11
180.58398500000001
 21
136.78564900000001
  0
LINE
  8
_0-3_CSLAYER12
  6
CONTINUOUS
 62
    7
 10
180.58398500000001
 20
136.78564900000001
 11
180.335003
 21
136.92939899999999
  0
CIRCLE
  8
_0-3_CSLAYER12
  6
CONTINUOUS
 62
    7
 10
180.335003
 20
136.641899
 40
0.248982
  0
ENDBLK
  0
BLOCK
  2
-028-BLKF0034
 70
   64
 10
0
 20
0
 30
0
  0
LINE
  8
_0-3_CSLAYER12
  6
CONTINUOUS
 62
    7
 10
176.83807999999999
 20
137.009772
 11
176.98746499999999
 21
136.996197
  0
LINE
  8
_0-3_CSLAYER12
  6
CONTINUOUS
 62
    7
 10
176.83807999999999
 20
137.009772
 11
176.81318400000001
 21
136.73579799999999
  0
LINE
  8
_0-3_CSLAYER12
  6
CONTINUOUS
 62
    7
 10
176.81093100000001
 20
136.73600200000001
 11
177.56010699999999
 21
136.66792599999999
  0
LINE
  8
_0-3_CSLAYER12
  6
CONTINUOUS
 62
    7
 10
177.585003
 20
136.94189900000001
 11
178.585003
 21
136.94189900000001
  0
POINT
  8
_0-3_CSLAYER12
 62
    4
 10
176.96031600000001
 20
136.72242800000001
  0
POINT
  8
_0-3_CSLAYER12
 62
    4
 10
177.1097
 20
136.708853
  0
POINT
  8
_0-3_CSLAYER12
 62
    4
 10
177.259085
 20
136.69528
  0
POINT
  8
_0-3_CSLAYER12
 62
    4
 10
177.408469
 20
136.68170499999999
  0
LINE
  8
_0-3_CSLAYER12
  6
CONTINUOUS
 62
    7
 10
177.111954
 20
136.70864900000001
 11
177.13684900000001
 21
136.98262199999999
  0
LINE
  8
_0-3_CSLAYER12
  6
CONTINUOUS
 62
    7
 10
176.98746499999999
 20
136.996197
 11
177.13232400000001
 21
136.932829
  0
LINE
  8
_0-3_CSLAYER12
  6
CONTINUOUS
 62
    7
 10
177.26133799999999
 20
136.69507400000001
 11
177.28623400000001
 21
136.96904799999999
  0
LINE
  8
_0-3_CSLAYER12
  6
CONTINUOUS
 62
    7
 10
177.13684900000001
 20
136.98262199999999
 11
177.28170900000001
 21
136.919254
  0
LINE
  8
_0-3_CSLAYER12
  6
CONTINUOUS
 62
    7
 10
177.41072299999999
 20
136.681501
 11
177.43561800000001
 21
136.95547400000001
  0
LINE
  8
_0-3_CSLAYER12
  6
CONTINUOUS
 62
    7
 10
177.28623400000001
 20
136.96904799999999
 11
177.431093
 21
136.90567899999999
  0
LINE
  8
_0-3_CSLAYER12
  6
CONTINUOUS
 62
    7
 10
176.98746499999999
 20
136.996197
 11
176.962569
 21
136.72222300000001
  0
LINE
  8
_0-3_CSLAYER12
  6
CONTINUOUS
 62
    7
 10
177.43561800000001
 20
136.95547400000001
 11
177.585003
 21
136.94189900000001
  0
LINE
  8
_0-3_CSLAYER12
  6
CONTINUOUS
 62
    7
 10
176.68500299999999
 20
136.891899
 11
176.68500299999999
 21
136.641899
  0
LINE
  8
_0-3_CSLAYER12
  6
CONTINUOUS
 62
    7
 10
176.68500299999999
 20
136.891899
 11
176.827369
 21
136.86689899999999
  0
LINE
  8
_0-3_CSLAYER12
  6
CONTINUOUS
 62
    7
 10
177.56010699999999
 20
136.66792599999999
 11
177.56010699999999
 21
136.641899
  0
LINE
  8
_0-3_CSLAYER12
  6
CONTINUOUS
 62
    7
 10
176.83807999999999
 20
136.27402699999999
 11
176.98746499999999
 21
136.287601
  0
LINE
  8
_0-3_CSLAYER12
  6
CONTINUOUS
 62
    7
 10
176.83807999999999
 20
136.27402699999999
 11
176.81318400000001
 21
136.548002
  0
LINE
  8
_0-3_CSLAYER12
  6
CONTINUOUS
 62
    7
 10
176.81093100000001
 20
136.54779600000001
 11
177.56010699999999
 21
136.61587299999999
  0
LINE
  8
_0-3_CSLAYER12
  6
CONTINUOUS
 62
    7
 10
177.585003
 20
136.34189900000001
 11
178.585003
 21
136.34189900000001
  0
POINT
  8
_0-3_CSLAYER12
 62
    4
 10
176.96031600000001
 20
136.56137000000001
  0
POINT
  8
_0-3_CSLAYER12
 62
    4
 10
177.1097
 20
136.57494500000001
  0
POINT
  8
_0-3_CSLAYER12
 62
    4
 10
177.259085
 20
136.58851899999999
  0
POINT
  8
_0-3_CSLAYER12
 62
    4
 10
177.408469
 20
136.60209399999999
  0
LINE
  8
_0-3_CSLAYER12
  6
CONTINUOUS
 62
    7
 10
177.111954
 20
136.57515000000001
 11
177.13684900000001
 21
136.301177
  0
LINE
  8
_0-3_CSLAYER12
  6
CONTINUOUS
 62
    7
 10
176.98746499999999
 20
136.287601
 11
177.13232400000001
 21
136.35097099999999
  0
LINE
  8
_0-3_CSLAYER12
  6
CONTINUOUS
 62
    7
 10
177.26133799999999
 20
136.58872400000001
 11
177.28623400000001
 21
136.31475
  0
LINE
  8
_0-3_CSLAYER12
  6
CONTINUOUS
 62
    7
 10
177.13684900000001
 20
136.301177
 11
177.28170900000001
 21
136.36454499999999
  0
LINE
  8
_0-3_CSLAYER12
  6
CONTINUOUS
 62
    7
 10
177.41072299999999
 20
136.60229799999999
 11
177.43561800000001
 21
136.32832500000001
  0
LINE
  8
_0-3_CSLAYER12
  6
CONTINUOUS
 62
    7
 10
177.28623400000001
 20
136.31475
 11
177.431093
 21
136.37812
  0
LINE
  8
_0-3_CSLAYER12
  6
CONTINUOUS
 62
    7
 10
176.98746499999999
 20
136.287601
 11
176.962569
 21
136.561575
  0
LINE
  8
_0-3_CSLAYER12
  6
CONTINUOUS
 62
    7
 10
177.43561800000001
 20
136.32832500000001
 11
177.585003
 21
136.34189900000001
  0
LINE
  8
_0-3_CSLAYER12
  6
CONTINUOUS
 62
    7
 10
176.68500299999999
 20
136.391899
 11
176.68500299999999
 21
136.641899
  0
LINE
  8
_0-3_CSLAYER12
  6
CONTINUOUS
 62
    7
 10
176.68500299999999
 20
136.391899
 11
176.827369
 21
136.4169
  0
LINE
  8
_0-3_CSLAYER12
  6
CONTINUOUS
 62
    7
 10
177.56010699999999
 20
136.34189900000001
 11
177.56010699999999
 21
136.94416100000001
  0
ENDBLK
  0
BLOCK
  2
-029-BLKF0035
 70
   64
 10
0
 20
0
 30
0
  0
ARC
  8
_0-3_CSLAYER12
  6
CONTINUOUS
 62
    7
 10
179.134186
 20
136.360649
 40
0.125817
 50
311.82971199999997
 51
48.170273000000066
  0
ARC
  8
_0-3_CSLAYER12
  6
CONTINUOUS
 62
    7
 10
178.81959599999999
 20
136.641899
 40
0.4404069999999998
 50
334.80233800000002
 51
25.19766199999998
  0
ARC
  8
_0-3_CSLAYER12
  6
CONTINUOUS
 62
    7
 10
179.134186
 20
136.923149
 40
0.125817
 50
311.82972699999999
 51
48.170273000000066
  0
LINE
  8
_0-3_CSLAYER12
  6
CONTINUOUS
 62
    7
 10
179.218096
 20
136.266899
 11
178.835003
 21
136.266899
  0
LINE
  8
_0-3_CSLAYER12
  6
CONTINUOUS
 62
    7
 10
178.835003
 20
137.016899
 11
179.218096
 21
137.016899
  0
LINE
  8
_0-3_CSLAYER12
  6
CONTINUOUS
 62
    7
 10
179.26000300000001
 20
136.360649
 11
179.26000300000001
 21
136.923149
  0
LINE
  8
_0-3_CSLAYER12
  6
CONTINUOUS
 62
    7
 10
179.218096
 20
136.829399
 11
178.93500299999999
 21
136.829399
  0
LINE
  8
_0-3_CSLAYER12
  6
CONTINUOUS
 62
    7
 10
179.218096
 20
136.454399
 11
178.93500299999999
 21
136.454399
  0
LINE
  8
_0-3_CSLAYER12
  6
CONTINUOUS
 62
    7
 10
178.93500299999999
 20
136.266899
 11
178.93500299999999
 21
137.016899
  0
POINT
  8
_0-3_CSLAYER12
 62
    7
 10
178.73500300000001
 20
136.641899
  0
LINE
  8
_0-3_CSLAYER12
  6
CONTINUOUS
 62
    7
 10
178.835003
 20
136.21689900000001
 11
178.73500300000001
 21
136.21689900000001
  0
LINE
  8
_0-3_CSLAYER12
  6
CONTINUOUS
 62
    7
 10
178.835003
 20
137.06689900000001
 11
178.73500300000001
 21
137.06689900000001
  0
LINE
  8
_0-3_CSLAYER12
  6
CONTINUOUS
 62
    7
 10
178.835003
 20
136.21689900000001
 11
178.835003
 21
137.06689900000001
  0
LINE
  8
_0-3_CSLAYER12
  6
CONTINUOUS
 62
    7
 10
178.93500299999999
 20
136.61166399999999
 11
178.835003
 21
136.72406100000001
  0
LINE
  8
_0-3_CSLAYER12
  6
CONTINUOUS
 62
    7
 10
178.93500299999999
 20
136.56965700000001
 11
178.835003
 21
136.68205399999999
  0
ENDBLK
  0
BLOCK
  2
-030-BLKF0036
 70
   64
 10
0
 20
0
 30
0
  0
TEXT
  8
_0-0_0
 62
    7
 10
365.20816000000002
 20
216.25621000000001
 40
3.2200000000000002
 41
0.6661489999999998
 50
0
  1
11.4
  0
LINE
  8
_0-0_0
  6
CONTINUOUS
 62
    5
 10
366.64816500000001
 20
220.71413999999999
 11
366.64816500000001
 21
214.256215
  0
LINE
  8
_0-0_0
  6
CONTINUOUS
 62
    5
 10
372.34816499999999
 20
220.71413999999999
 11
372.34816499999999
 21
214.256215
  0
LINE
  8
_0-0_0
  6
CONTINUOUS
 62
    5
 10
366.64816500000001
 20
215.256215
 11
372.34816499999999
 21
215.256215
  0
LINE
  8
_0-0_0
  6
CONTINUOUS
 62
    5
 10
366.64816500000001
 20
215.256215
 11
367.64816500000001
 21
215.256215
  0
CIRCLE
  8
_0-0_0
  6
CONTINUOUS
 62
    5
 10
366.64816500000001
 20
215.256215
 40
0.5
  0
CIRCLE
  8
_0-0_0
  6
CONTINUOUS
 62
    5
 10
366.64816500000001
 20
215.256215
 40
0.25
  0
LINE
  8
_0-0_0
  6
CONTINUOUS
 62
    5
 10
372.34816499999999
 20
215.256215
 11
371.34816499999999
 21
215.256215
  0
CIRCLE
  8
_0-0_0
  6
CONTINUOUS
 62
    5
 10
372.34816499999999
 20
215.256215
 40
0.5
  0
CIRCLE
  8
_0-0_0
  6
CONTINUOUS
 62
    5
 10
372.34816499999999
 20
215.256215
 40
0.25
  0
ENDBLK
  0
BLOCK
  2
-031-_D38
 70
   64
 10
0
 20
0
 30
0
  0
TEXT
  8
_0-0_0
 62
    7
 10
366.97816899999998
 20
270.76937900000001
 40
3.2000000000000002
 41
0.7874999999999998
 50
0
  1
16
  0
LINE
  8
_0-0_0
  6
CONTINUOUS
 62
    5
 10
365.49816399999997
 20
264.77417800000001
 11
365.49816399999997
 21
270.76935700000001
  0
LINE
  8
_0-0_0
  6
CONTINUOUS
 62
    5
 10
373.49816399999997
 20
264.77417800000001
 11
373.49816399999997
 21
270.76935700000001
  0
LINE
  8
_0-0_0
  6
CONTINUOUS
 62
    5
 10
365.49816399999997
 20
269.76935700000001
 11
373.49816399999997
 21
269.76935700000001
  0
INSERT
  2
-000-EDTIP_BLACKDOT_S
  8
_0-0_0
 10
365.49816399999997
 20
269.76935700000001
 41
1
 42
1
 50
180
  0
INSERT
  2
-001-EDTIP_BLACKDOT_E
  8
_0-0_0
 10
373.49816399999997
 20
269.76935700000001
 41
1
 42
1
 50
0
  0
ENDBLK
  0
BLOCK
  2
-032-BLKF0039
 70
   64
 10
0
 20
0
 30
0
  0
LINE
  8
_0-0_0
  6
CONTINUOUS
 62
    5
 10
296.99078800000001
 20
54.020955000000001
 11
302.26619699999998
 21
43.285037000000003
  0
LINE
  8
_0-0_0
  6
CONTINUOUS
 62
    5
 10
296.99078800000001
 20
54.020955000000001
 11
298.313828
 21
51.328454000000001
  0
LINE
  8
_0-0_0
  6
CONTINUOUS
 62
    5
 10
296.99078800000001
 20
54.020955000000001
 11
297.57187599999997
 21
51.077770000000001
  0
LINE
  8
_0-0_0
  6
CONTINUOUS
 62
    5
 10
296.99078800000001
 20
54.020955000000001
 11
298.96561800000001
 21
51.762625999999997
  0
LINE
  8
_0-0_0
  6
CONTINUOUS
 62
    5
 10
302.26619699999998
 20
43.285037000000003
 11
331.736198
 21
43.285037000000003
  0
TEXT
  8
_0-0_0
 62
    7
 10
301.98855600000002
 20
47.264729000000003
 40
3.2200000000000002
 41
0.6801239999999999
 50
0
  1
SUS M8オ-ルアンカ-
  0
TEXT
  8
_0-0_0
 62
    7
 10
301.98855600000002
 20
44.044727000000002
 40
3.2200000000000002
 41
0.6747999999999999
 50
0
  1
(オプション）
  0
LINE
  8
_0-0_0
  6
CENTER
 62
    7
 10
282.49723299999999
 20
54.598272999999999
 11
312.81938300000002
 21
54.598272999999999
  0
POINT
  8
_0-0_0
 62
    7
 10
293.43887599999999
 20
54.598272999999999
  0
LINE
  8
_0-0_0
  6
CONTINUOUS
 62
    7
 10
284.53887600000002
 20
52.598274000000004
 11
284.53887600000002
 21
56.598272999999999
  0
LINE
  8
_0-0_0
  6
CONTINUOUS
 62
    7
 10
283.93887599999999
 20
53.198273
 11
283.93887599999999
 21
55.998272999999998
  0
LINE
  8
_0-0_0
  6
CONTINUOUS
 62
    7
 10
284.53887600000002
 20
52.598274000000004
 11
283.93887599999999
 21
53.198273
  0
LINE
  8
_0-0_0
  6
CONTINUOUS
 62
    7
 10
284.53887600000002
 20
56.598272999999999
 11
283.93887599999999
 21
55.998272999999998
  0
LINE
  8
_0-0_0
  6
CONTINUOUS
 62
    7
 10
285.68887599999999
 20
56.285772999999999
 11
284.22637600000002
 21
56.285772999999999
  0
LINE
  8
_0-0_0
  6
CONTINUOUS
 62
    7
 10
285.68887599999999
 20
52.910774000000004
 11
284.22637600000002
 21
52.910774000000004
  0
LINE
  8
_0-0_0
  6
CONTINUOUS
 62
    7
 10
285.68887599999999
 20
52.598274000000004
 11
284.53887600000002
 21
52.598274000000004
  0
LINE
  8
_0-0_0
  6
CONTINUOUS
 62
    7
 10
285.68887599999999
 20
56.598272999999999
 11
284.53887600000002
 21
56.598272999999999
  0
LINE
  8
_0-0_0
  6
CONTINUOUS
 62
    7
 10
289.93887599999999
 20
50.848274000000004
 11
286.04971999999998
 21
50.848274000000004
  0
LINE
  8
_0-0_0
  6
CONTINUOUS
 62
    7
 10
288.93887599999999
 20
52.724662000000002
 11
286.04971999999998
 21
52.724662000000002
  0
LINE
  8
_0-0_0
  6
CONTINUOUS
 62
    7
 10
285.68887599999999
 20
51.786467999999999
 11
285.68887599999999
 21
57.410079000000003
  0
LINE
  8
_0-0_0
  6
CONTINUOUS
 62
    7
 10
289.93887599999999
 20
58.348272999999999
 11
286.04971999999998
 21
58.348272999999999
  0
LINE
  8
_0-0_0
  6
CONTINUOUS
 62
    7
 10
288.93887599999999
 20
56.471885
 11
286.04971999999998
 21
56.471885
  0
ARC
  8
_0-0_0
  6
CONTINUOUS
 62
    7
 10
287.08895200000001
 20
51.786467999999999
 40
1.400074
 50
137.92498000000001
 51
222.07501999999997
  0
ARC
  8
_0-0_0
  6
CONTINUOUS
 62
    7
 10
287.08895200000001
 20
57.410079000000003
 40
1.400074
 50
137.92498000000001
 51
222.07501999999997
  0
ARC
  8
_0-0_0
  6
CONTINUOUS
 62
    7
 10
290.73347999999999
 20
54.598272999999999
 40
5.0446030000000004
 50
158.19745599999999
 51
201.80254400000001
  0
LINE
  8
_0-0_0
  6
CONTINUOUS
 62
    7
 10
307.18176199999999
 20
56.626036999999997
 11
308.68084800000003
 21
56.678387000000001
  0
LINE
  8
_0-0_0
  6
CONTINUOUS
 62
    7
 10
299.28435000000002
 20
54.849339000000001
 11
310.24090799999999
 21
55.231951000000002
  0
LINE
  8
_0-0_0
  6
CONTINUOUS
 62
    7
 10
308.672123
 20
56.928235000000001
 11
310.17983299999997
 21
56.980885000000001
  0
LINE
  8
_0-0_0
  6
CONTINUOUS
 62
    7
 10
310.24017900000001
 20
55.252803999999998
 11
310.17983299999997
 21
56.980885000000001
  0
LINE
  8
_0-0_0
  6
CONTINUOUS
 62
    7
 10
308.672123
 20
56.928235000000001
 11
308.73295400000001
 21
55.186287
  0
LINE
  8
_0-0_0
  6
CONTINUOUS
 62
    7
 10
301.18541699999997
 20
56.416640999999998
 11
302.684504
 21
56.468991000000003
  0
LINE
  8
_0-0_0
  6
CONTINUOUS
 62
    7
 10
302.67577799999998
 20
56.718837000000001
 11
304.17486400000001
 21
56.771186999999998
  0
LINE
  8
_0-0_0
  6
CONTINUOUS
 62
    7
 10
305.67395099999999
 20
56.823537000000002
 11
307.17303700000002
 21
56.875884999999997
  0
LINE
  8
_0-0_0
  6
CONTINUOUS
 62
    7
 10
304.18358899999998
 20
56.521338999999998
 11
305.68267600000001
 21
56.573689000000002
  0
LINE
  8
_0-0_0
  6
CONTINUOUS
 62
    7
 10
307.17303700000002
 20
56.875884999999997
 11
307.23386699999998
 21
55.133938000000001
  0
LINE
  8
_0-0_0
  6
CONTINUOUS
 62
    7
 10
305.67395099999999
 20
56.823537000000002
 11
305.734781
 21
55.081589000000001
  0
LINE
  8
_0-0_0
  6
CONTINUOUS
 62
    7
 10
304.17486400000001
 20
56.771186999999998
 11
304.23569500000002
 21
55.029240999999999
  0
LINE
  8
_0-0_0
  6
CONTINUOUS
 62
    7
 10
302.67577799999998
 20
56.718837000000001
 11
302.73660799999999
 21
54.976889999999997
  0
LINE
  8
_0-0_0
  6
CONTINUOUS
 62
    7
 10
301.176692
 20
56.666488999999999
 11
301.23752200000001
 21
54.924542000000002
  0
LINE
  8
_0-0_0
  6
CONTINUOUS
 62
    7
 10
299.67760600000003
 20
56.614139000000002
 11
299.73847000000001
 21
54.871206000000001
  0
LINE
  8
_0-0_0
  6
CONTINUOUS
 62
    7
 10
299.223277
 20
54.348272999999999
 11
299.223277
 21
54.848272999999999
  0
LINE
  8
_0-0_0
  6
CONTINUOUS
 62
    7
 10
290.93887599999999
 20
52.598274000000004
 11
299.223277
 21
52.598274000000004
  0
LINE
  8
_0-0_0
  6
CONTINUOUS
 62
    7
 10
290.93887599999999
 20
56.598272999999999
 11
299.223277
 21
56.598272999999999
  0
LINE
  8
_0-0_0
  6
CONTINUOUS
 62
    7
 10
288.93887599999999
 20
50.848274000000004
 11
288.93887599999999
 21
58.348272999999999
  0
POINT
  8
_0-0_0
 62
    7
 10
292.18887599999999
 20
54.598272999999999
  0
LINE
  8
_0-0_0
  6
CONTINUOUS
 62
    7
 10
289.93887599999999
 20
50.348274000000004
 11
290.93887599999999
 21
50.348274000000004
  0
LINE
  8
_0-0_0
  6
CONTINUOUS
 62
    7
 10
289.93887599999999
 20
58.848272999999999
 11
290.93887599999999
 21
58.848272999999999
  0
LINE
  8
_0-0_0
  6
CONTINUOUS
 62
    7
 10
289.93887599999999
 20
50.348274000000004
 11
289.93887599999999
 21
58.848272999999999
  0
LINE
  8
_0-0_0
  6
CONTINUOUS
 62
    7
 10
288.93887599999999
 20
54.295924999999997
 11
289.93887599999999
 21
55.419894999999997
  0
LINE
  8
_0-0_0
  6
CONTINUOUS
 62
    7
 10
288.93887599999999
 20
53.875855999999999
 11
289.93887599999999
 21
54.999825999999999
  0
LINE
  8
_0-0_0
  6
CONTINUOUS
 62
    7
 10
290.93887599999999
 20
58.848272999999999
 11
290.93887599999999
 21
50.348274000000004
  0
LINE
  8
_0-0_0
  6
CONTINUOUS
 62
    7
 10
299.223277
 20
56.598272999999999
 11
301.176692
 21
56.666488999999999
  0
ARC
  8
_0-0_0
  6
CONTINUOUS
 62
    7
 10
309.30619799999999
 20
51.331682000000001
 40
3.9011469999999999
 50
56.860459999999996
 51
84.223905999999999
  0
LINE
  8
_0-0_0
  6
CONTINUOUS
 62
    7
 10
307.18176199999999
 20
52.570509999999999
 11
308.68084800000003
 21
52.518160000000002
  0
LINE
  8
_0-0_0
  6
CONTINUOUS
 62
    7
 10
299.28435000000002
 20
54.347206999999997
 11
310.24090799999999
 21
53.964596
  0
LINE
  8
_0-0_0
  6
CONTINUOUS
 62
    7
 10
308.672123
 20
52.268312999999999
 11
310.17983299999997
 21
52.215662999999999
  0
LINE
  8
_0-0_0
  6
CONTINUOUS
 62
    7
 10
310.24017900000001
 20
53.943742999999998
 11
310.17983299999997
 21
52.215662999999999
  0
LINE
  8
_0-0_0
  6
CONTINUOUS
 62
    7
 10
308.672123
 20
52.268312999999999
 11
308.73295400000001
 21
54.010260000000002
  0
LINE
  8
_0-0_0
  6
CONTINUOUS
 62
    7
 10
301.18541699999997
 20
52.779907000000001
 11
302.684504
 21
52.727558000000002
  0
LINE
  8
_0-0_0
  6
CONTINUOUS
 62
    7
 10
302.67577799999998
 20
52.477710000000002
 11
304.17486400000001
 21
52.425361000000002
  0
LINE
  8
_0-0_0
  6
CONTINUOUS
 62
    7
 10
305.67395099999999
 20
52.373012000000003
 11
307.17303700000002
 21
52.320661999999999
  0
LINE
  8
_0-0_0
  6
CONTINUOUS
 62
    7
 10
304.18358899999998
 20
52.675207999999998
 11
305.68267600000001
 21
52.622860000000003
  0
LINE
  8
_0-0_0
  6
CONTINUOUS
 62
    7
 10
307.17303700000002
 20
52.320661999999999
 11
307.23386699999998
 21
54.062609000000002
  0
LINE
  8
_0-0_0
  6
CONTINUOUS
 62
    7
 10
305.67395099999999
 20
52.373012000000003
 11
305.734781
 21
54.114958999999999
  0
LINE
  8
_0-0_0
  6
CONTINUOUS
 62
    7
 10
304.17486400000001
 20
52.425361000000002
 11
304.23569500000002
 21
54.167307000000001
  0
LINE
  8
_0-0_0
  6
CONTINUOUS
 62
    7
 10
302.67577799999998
 20
52.477710000000002
 11
302.73660799999999
 21
54.219656000000001
  0
LINE
  8
_0-0_0
  6
CONTINUOUS
 62
    7
 10
301.176692
 20
52.530059000000001
 11
301.23752200000001
 21
54.272007000000002
  0
LINE
  8
_0-0_0
  6
CONTINUOUS
 62
    7
 10
299.67760600000003
 20
52.582408999999998
 11
299.73847000000001
 21
54.325341000000002
  0
LINE
  8
_0-0_0
  6
DOT_20
 62
    7
 10
299.223277
 20
54.848272999999999
 11
299.223277
 21
54.348272999999999
  0
LINE
  8
_0-0_0
  6
CONTINUOUS
 62
    7
 10
299.223277
 20
52.598274000000004
 11
301.176692
 21
52.530059000000001
  0
ARC
  8
_0-0_0
  6
CONTINUOUS
 62
    7
 10
309.30619799999999
 20
57.864865999999999
 40
3.9011469999999999
 50
275.776094
 51
303.13954000000001
  0
ENDBLK
  0
BLOCK
  2
-033-_D40
 70
   64
 10
0
 20
0
 30
0
  0
TEXT
  8
_0-0_0
 62
    7
 10
334.677795
 20
54.973269999999999
 40
3.2000000000000002
 41
0.703125
 50
90
  1
6
  0
LINE
  8
_0-0_0
  6
CONTINUOUS
 62
    5
 10
311.43887799999999
 20
54.598272999999999
 11
336.67778900000002
 21
54.598272999999999
  0
LINE
  8
_0-0_0
  6
CONTINUOUS
 62
    5
 10
331.607192
 20
57.598272999999999
 11
336.67778900000002
 21
57.598272999999999
  0
LINE
  8
_0-0_0
  6
CONTINUOUS
 62
    5
 10
335.67778900000002
 20
54.598272999999999
 11
335.67778900000002
 21
57.598272999999999
  0
INSERT
  2
-000-EDTIP_BLACKDOT_S
  8
_0-0_0
 10
335.67778900000002
 20
54.598272999999999
 41
1
 42
1
 50
270
  0
INSERT
  2
-001-EDTIP_BLACKDOT_E
  8
_0-0_0
 10
335.67778900000002
 20
57.598272999999999
 41
1
 42
1
 50
90
  0
ENDBLK
  0
BLOCK
  2
-034-BLKF0041
 70
   64
 10
0
 20
0
 30
0
  0
TEXT
  8
_0-0_0
 62
    7
 10
50.930511000000003
 20
39.282573999999997
 40
3.2200000000000002
 41
0.65942
 50
0
  1
 M8
  0
TEXT
  8
_0-0_0
 62
    7
 10
43.195511000000003
 20
36.062576
 40
3.2200000000000002
 41
0.678261
 50
0
  1
グリップアンカーＳt
  0
TEXT
  8
_0-0_0
 62
    7
 10
49.825512000000003
 20
32.842574999999997
 40
3.2200000000000002
 41
0.6661489999999998
 50
0
  1
(標準）
  0
LINE
  8
_0-0_0
  6
CONTINUOUS
 62
    7
 10
74.120857999999998
 20
52.951656
 11
65.826100999999994
 21
31.581005000000001
  0
LINE
  8
_0-0_0
  6
CONTINUOUS
 62
    7
 10
74.120857999999998
 20
52.951656
 11
73.035345000000007
 21
50.154932000000002
  0
LINE
  8
_0-0_0
  6
CONTINUOUS
 62
    7
 10
74.120857999999998
 20
52.951656
 11
72.348487000000006
 21
50.531179999999999
  0
LINE
  8
_0-0_0
  6
CONTINUOUS
 62
    7
 10
74.120857999999998
 20
52.951656
 11
73.796177999999998
 21
49.969276000000001
  0
LINE
  8
_0-0_0
  6
CONTINUOUS
 62
    7
 10
65.826100999999994
 20
31.581005000000001
 11
40.555951
 21
31.581005000000001
  0
ENDBLK
  0
BLOCK
  2
-035-BLKF0042
 70
   64
 10
0
 20
0
 30
0
  0
TEXT
  8
_0-0_0
 62
    7
 10
59.587649999999996
 20
84.827147999999994
 40
3.2200000000000002
 41
0.672878
 50
0
  1
四角 SUS M8×16
  0
LINE
  8
_0-0_0
  6
CONTINUOUS
 62
    7
 10
105.029366
 20
65.225487999999999
 11
87.565534999999997
 21
83.827123
  0
LINE
  8
_0-0_0
  6
CONTINUOUS
 62
    7
 10
105.029366
 20
65.225487999999999
 11
102.718733
 21
67.138856000000004
  0
LINE
  8
_0-0_0
  6
CONTINUOUS
 62
    7
 10
105.029366
 20
65.225487999999999
 11
103.292681
 21
67.671695
  0
LINE
  8
_0-0_0
  6
CONTINUOUS
 62
    7
 10
105.029366
 20
65.225487999999999
 11
102.302249
 21
66.475623999999996
  0
LINE
  8
_0-0_0
  6
CONTINUOUS
 62
    7
 10
87.565534999999997
 20
83.827123
 11
58.956322
 21
83.827123
  0
ENDBLK
  0
BLOCK
  2
-036-BLKF0043
 70
   64
 10
0
 20
0
 30
0
  0
LINE
  8
_0-0_0
  6
CONTINUOUS
 62
    5
 10
87.684798000000001
 20
47.098272999999999
 11
56.548042000000002
 21
47.098272999999999
  0
LINE
  8
_0-0_0
  6
CONTINUOUS
 62
    5
 10
65.185201000000006
 20
54.598272999999999
 11
56.548042000000002
 21
54.598272999999999
  0
LINE
  8
_0-0_0
  6
CONTINUOUS
 62
    5
 10
57.548042000000002
 20
47.098272999999999
 11
57.548042000000002
 21
54.598272999999999
  0
LINE
  8
_0-0_0
  6
CONTINUOUS
 62
    5
 10
57.548042000000002
 20
47.098272999999999
 11
57.548042000000002
 21
48.098272999999999
  0
CIRCLE
  8
_0-0_0
  6
CONTINUOUS
 62
    5
 10
57.548042000000002
 20
47.098272999999999
 40
0.5
  0
CIRCLE
  8
_0-0_0
  6
CONTINUOUS
 62
    5
 10
57.548042000000002
 20
47.098272999999999
 40
0.25
  0
LINE
  8
_0-0_0
  6
CONTINUOUS
 62
    5
 10
57.548042000000002
 20
54.598272999999999
 11
57.548042000000002
 21
53.598272999999999
  0
CIRCLE
  8
_0-0_0
  6
CONTINUOUS
 62
    5
 10
57.548042000000002
 20
54.598272999999999
 40
0.5
  0
CIRCLE
  8
_0-0_0
  6
CONTINUOUS
 62
    5
 10
57.548042000000002
 20
54.598272999999999
 40
0.25
  0
TEXT
  8
_0-0_0
 62
    7
 10
56.548045999999999
 20
48.768279999999997
 40
3.2200000000000002
 41
0.645963
 50
90
  1
15
  0
ENDBLK
  0
BLOCK
  2
-037-BLKF0044
 70
   64
 10
0
 20
0
 30
0
  0
LINE
  8
_0-0_0
  6
CONTINUOUS
 62
    5
 10
88.184798000000001
 20
63.098272999999999
 11
56.548042000000002
 21
63.098272999999999
  0
LINE
  8
_0-0_0
  6
CONTINUOUS
 62
    5
 10
57.548042000000002
 20
54.598272999999999
 11
57.548042000000002
 21
63.098272999999999
  0
LINE
  8
_0-0_0
  6
CONTINUOUS
 62
    5
 10
57.548042000000002
 20
54.598272999999999
 11
57.548042000000002
 21
55.598272999999999
  0
CIRCLE
  8
_0-0_0
  6
CONTINUOUS
 62
    5
 10
57.548042000000002
 20
54.598272999999999
 40
0.5
  0
CIRCLE
  8
_0-0_0
  6
CONTINUOUS
 62
    5
 10
57.548042000000002
 20
54.598272999999999
 40
0.25
  0
LINE
  8
_0-0_0
  6
CONTINUOUS
 62
    5
 10
57.548042000000002
 20
63.098272999999999
 11
57.548042000000002
 21
62.098272999999999
  0
CIRCLE
  8
_0-0_0
  6
CONTINUOUS
 62
    5
 10
57.548042000000002
 20
63.098272999999999
 40
0.5
  0
CIRCLE
  8
_0-0_0
  6
CONTINUOUS
 62
    5
 10
57.548042000000002
 20
63.098272999999999
 40
0.25
  0
TEXT
  8
_0-0_0
 62
    7
 10
56.548045999999999
 20
56.768276
 40
3.2200000000000002
 41
0.645963
 50
90
  1
17
  0
ENDBLK
  0
BLOCK
  2
-038-BLKF0045
 70
   64
 10
0
 20
0
 30
0
  0
LINE
  8
_0-0_0
  6
CONTINUOUS
 62
    5
 10
54.548042000000002
 20
47.098272999999999
 11
45.726864999999997
 21
47.098272999999999
  0
LINE
  8
_0-0_0
  6
CONTINUOUS
 62
    5
 10
54.548042000000002
 20
63.098272999999999
 11
45.726864999999997
 21
63.098272999999999
  0
LINE
  8
_0-0_0
  6
CONTINUOUS
 62
    5
 10
46.726864999999997
 20
47.098272999999999
 11
46.726864999999997
 21
63.098272999999999
  0
LINE
  8
_0-0_0
  6
CONTINUOUS
 62
    5
 10
46.726864999999997
 20
47.098272999999999
 11
46.726864999999997
 21
48.098272999999999
  0
CIRCLE
  8
_0-0_0
  6
CONTINUOUS
 62
    5
 10
46.726864999999997
 20
47.098272999999999
 40
0.5
  0
CIRCLE
  8
_0-0_0
  6
CONTINUOUS
 62
    5
 10
46.726864999999997
 20
47.098272999999999
 40
0.25
  0
LINE
  8
_0-0_0
  6
CONTINUOUS
 62
    5
 10
46.726864999999997
 20
63.098272999999999
 11
46.726864999999997
 21
62.098272999999999
  0
CIRCLE
  8
_0-0_0
  6
CONTINUOUS
 62
    5
 10
46.726864999999997
 20
63.098272999999999
 40
0.5
  0
CIRCLE
  8
_0-0_0
  6
CONTINUOUS
 62
    5
 10
46.726864999999997
 20
63.098272999999999
 40
0.25
  0
TEXT
  8
_0-0_0
 62
    7
 10
45.726871000000003
 20
53.018276
 40
3.2200000000000002
 41
0.645963
 50
90
  1
32
  0
ENDBLK
  0
BLOCK
  2
-039-BLKF0046
 70
   64
 10
0
 20
0
 30
0
  0
LINE
  8
_0-0_0
  6
CONTINUOUS
 62
    5
 10
88.684798000000001
 20
23.423378
 11
292.43887599999999
 21
23.423378
  0
LINE
  8
_0-0_0
  6
CONTINUOUS
 62
    5
 10
88.684798000000001
 20
23.423378
 11
89.684798000000001
 21
23.423378
  0
CIRCLE
  8
_0-0_0
  6
CONTINUOUS
 62
    5
 10
88.684798000000001
 20
23.423378
 40
0.5
  0
CIRCLE
  8
_0-0_0
  6
CONTINUOUS
 62
    5
 10
88.684798000000001
 20
23.423378
 40
0.25
  0
LINE
  8
_0-0_0
  6
CONTINUOUS
 62
    5
 10
292.43887599999999
 20
23.423378
 11
291.43887599999999
 21
23.423378
  0
CIRCLE
  8
_0-0_0
  6
CONTINUOUS
 62
    5
 10
292.43887599999999
 20
23.423378
 40
0.5
  0
CIRCLE
  8
_0-0_0
  6
CONTINUOUS
 62
    5
 10
292.43887599999999
 20
23.423378
 40
0.25
  0
ENDBLK
  0
BLOCK
  2
-040-BLKF0047
 70
   64
 10
0
 20
0
 30
0
  0
LINE
  8
_0-0_0
  6
CONTINUOUS
 62
    5
 10
98.684798000000001
 20
54.098272999999999
 11
98.684798000000001
 21
36.109814
  0
LINE
  8
_0-0_0
  6
CONTINUOUS
 62
    5
 10
118.684798
 20
54.098272999999999
 11
118.684798
 21
36.109814
  0
LINE
  8
_0-0_0
  6
CONTINUOUS
 62
    5
 10
98.684798000000001
 20
37.109814
 11
118.684798
 21
37.109814
  0
LINE
  8
_0-0_0
  6
CONTINUOUS
 62
    5
 10
98.684798000000001
 20
37.109814
 11
99.684798000000001
 21
37.109814
  0
CIRCLE
  8
_0-0_0
  6
CONTINUOUS
 62
    5
 10
98.684798000000001
 20
37.109814
 40
0.5
  0
CIRCLE
  8
_0-0_0
  6
CONTINUOUS
 62
    5
 10
98.684798000000001
 20
37.109814
 40
0.25
  0
LINE
  8
_0-0_0
  6
CONTINUOUS
 62
    5
 10
118.684798
 20
37.109814
 11
117.684798
 21
37.109814
  0
CIRCLE
  8
_0-0_0
  6
CONTINUOUS
 62
    5
 10
118.684798
 20
37.109814
 40
0.5
  0
CIRCLE
  8
_0-0_0
  6
CONTINUOUS
 62
    5
 10
118.684798
 20
37.109814
 40
0.25
  0
TEXT
  8
_0-0_0
 62
    7
 10
106.604797
 20
38.109814
 40
3.2200000000000002
 41
0.645963
 50
0
  1
40
  0
ENDBLK
  0
BLOCK
  2
-041-BLKF0048
 70
   64
 10
0
 20
0
 30
0
  0
LINE
  8
_0-0_0
  6
CONTINUOUS
 62
    5
 10
88.184798000000001
 20
47.098272999999999
 11
66.185201000000006
 21
47.098272999999999
  0
LINE
  8
_0-0_0
  6
CONTINUOUS
 62
    5
 10
88.184798000000001
 20
49.598272999999999
 11
66.185201000000006
 21
49.598272999999999
  0
LINE
  8
_0-0_0
  6
CONTINUOUS
 62
    5
 10
67.185201000000006
 20
47.098272999999999
 11
67.185201000000006
 21
49.598272999999999
  0
LINE
  8
_0-0_0
  6
CONTINUOUS
 62
    5
 10
67.185201000000006
 20
47.098272999999999
 11
67.185201000000006
 21
48.098272999999999
  0
CIRCLE
  8
_0-0_0
  6
CONTINUOUS
 62
    5
 10
67.185201000000006
 20
47.098272999999999
 40
0.5
  0
CIRCLE
  8
_0-0_0
  6
CONTINUOUS
 62
    5
 10
67.185201000000006
 20
47.098272999999999
 40
0.25
  0
LINE
  8
_0-0_0
  6
CONTINUOUS
 62
    5
 10
67.185201000000006
 20
44.648274000000001
 11
67.185201000000006
 21
47.098272999999999
  0
LINE
  8
_0-0_0
  6
CONTINUOUS
 62
    5
 10
67.185201000000006
 20
47.098272999999999
 11
67.185201000000006
 21
46.098272999999999
  0
CIRCLE
  8
_0-0_0
  6
CONTINUOUS
 62
    5
 10
67.185201000000006
 20
47.098272999999999
 40
0.5
  0
CIRCLE
  8
_0-0_0
  6
CONTINUOUS
 62
    5
 10
67.185201000000006
 20
47.098272999999999
 40
0.25
  0
TEXT
  8
_0-0_0
 62
    7
 10
66.185196000000005
 20
44.648273000000003
 40
3.2200000000000002
 41
0.6055899999999998
 50
90
  1
5
  0
ENDBLK
  0
BLOCK
  2
-042-BLKF0049
 70
   64
 10
0
 20
0
 30
0
  0
LINE
  8
_0-0_0
  6
CONTINUOUS
 62
    5
 10
88.184798000000001
 20
59.598272999999999
 11
66.185201000000006
 21
59.598272999999999
  0
LINE
  8
_0-0_0
  6
CONTINUOUS
 62
    5
 10
67.185201000000006
 20
49.598272999999999
 11
67.185201000000006
 21
59.598272999999999
  0
LINE
  8
_0-0_0
  6
CONTINUOUS
 62
    5
 10
67.185201000000006
 20
49.598272999999999
 11
67.185201000000006
 21
50.598272999999999
  0
CIRCLE
  8
_0-0_0
  6
CONTINUOUS
 62
    5
 10
67.185201000000006
 20
49.598272999999999
 40
0.5
  0
CIRCLE
  8
_0-0_0
  6
CONTINUOUS
 62
    5
 10
67.185201000000006
 20
49.598272999999999
 40
0.25
  0
LINE
  8
_0-0_0
  6
CONTINUOUS
 62
    5
 10
67.185201000000006
 20
59.598272999999999
 11
67.185201000000006
 21
58.598272999999999
  0
CIRCLE
  8
_0-0_0
  6
CONTINUOUS
 62
    5
 10
67.185201000000006
 20
59.598272999999999
 40
0.5
  0
CIRCLE
  8
_0-0_0
  6
CONTINUOUS
 62
    5
 10
67.185201000000006
 20
59.598272999999999
 40
0.25
  0
TEXT
  8
_0-0_0
 62
    7
 10
66.185196000000005
 20
52.518279999999997
 40
3.2200000000000002
 41
0.645963
 50
90
  1
20
  0
ENDBLK
  0
BLOCK
  2
-043-BLKF0050
 70
   64
 10
0
 20
0
 30
0
  0
LINE
  8
_0-0_0
  6
CONTINUOUS
 62
    5
 10
89.183216000000002
 20
50.598272999999999
 11
79.098457999999994
 21
25.229422
  0
LINE
  8
_0-0_0
  6
CONTINUOUS
 62
    5
 10
89.183216000000002
 20
50.598272999999999
 11
88.074995000000001
 21
47.810471
  0
LINE
  8
_0-0_0
  6
CONTINUOUS
 62
    5
 10
89.183216000000002
 20
50.598272999999999
 11
87.391220000000004
 21
48.192290999999997
  0
LINE
  8
_0-0_0
  6
CONTINUOUS
 62
    5
 10
89.183216000000002
 20
50.598272999999999
 11
88.834293000000002
 21
47.618633000000003
  0
LINE
  8
_0-0_0
  6
CONTINUOUS
 62
    5
 10
79.098457999999994
 20
25.229422
 11
57.580007000000002
 21
25.229422
  0
TEXT
  8
_0-0_0
 62
    7
 10
58.580005999999997
 20
26.229412
 40
3.2200000000000002
 41
0.6773639999999998
 50
0
  1
横ル-ズ穴9Ｘ20
  0
ENDBLK
  0
BLOCK
  2
-044-BLKF0051
 70
   64
 10
0
 20
0
 30
0
  0
LINE
  8
_0-0_0
  6
CONTINUOUS
 62
    5
 10
139.95652699999999
 20
57.402920999999999
 11
151.876285
 21
40.345339000000003
  0
LINE
  8
_0-0_0
  6
CONTINUOUS
 62
    5
 10
139.95652699999999
 20
57.402920999999999
 11
141.674926
 21
54.943835
  0
LINE
  8
_0-0_0
  6
CONTINUOUS
 62
    5
 10
139.95652699999999
 20
57.402920999999999
 11
140.97991400000001
 21
54.582870999999997
  0
LINE
  8
_0-0_0
  6
CONTINUOUS
 62
    5
 10
139.95652699999999
 20
57.402920999999999
 11
142.25283099999999
 21
55.472380000000001
  0
LINE
  8
_0-0_0
  6
CONTINUOUS
 62
    5
 10
151.876285
 20
40.345339000000003
 11
187.97628499999999
 21
40.345339000000003
  0
TEXT
  8
_0-0_0
 62
    7
 10
151.87629699999999
 20
41.345332999999997
 40
3.2200000000000002
 41
0.681289
 50
0
  1
ボ-ド（ケイカル板　ｔ；5.0）
  0
ENDBLK
  0
BLOCK
  2
-045-BLKF0052
 70
   64
 10
0
 20
0
 30
0
  0
LINE
  8
_0-0_0
  6
CONTINUOUS
 62
    5
 10
114.684798
 20
63.098272999999999
 11
123.28315600000001
 21
63.098272999999999
  0
LINE
  8
_0-0_0
  6
CONTINUOUS
 62
    5
 10
122.28315600000001
 20
61.598272999999999
 11
122.28315600000001
 21
63.098272999999999
  0
LINE
  8
_0-0_0
  6
CONTINUOUS
 62
    5
 10
122.28315600000001
 20
61.598272999999999
 11
122.28315600000001
 21
62.598272999999999
  0
CIRCLE
  8
_0-0_0
  6
CONTINUOUS
 62
    5
 10
122.28315600000001
 20
61.598272999999999
 40
0.5
  0
CIRCLE
  8
_0-0_0
  6
CONTINUOUS
 62
    5
 10
122.28315600000001
 20
61.598272999999999
 40
0.25
  0
LINE
  8
_0-0_0
  6
CONTINUOUS
 62
    5
 10
122.28315600000001
 20
63.098272999999999
 11
122.28315600000001
 21
62.098272999999999
  0
CIRCLE
  8
_0-0_0
  6
CONTINUOUS
 62
    5
 10
122.28315600000001
 20
63.098272999999999
 40
0.5
  0
CIRCLE
  8
_0-0_0
  6
CONTINUOUS
 62
    5
 10
122.28315600000001
 20
63.098272999999999
 40
0.25
  0
TEXT
  8
_0-0_0
 62
    7
 10
123.26990499999999
 20
63.973872999999998
 40
3.2200000000000002
 41
0.6055899999999998
 50
90
  1
3
  0
ENDBLK
  0
BLOCK
  2
-046-BLKF0053
 70
   64
 10
0
 20
0
 30
0
  0
TEXT
  8
_0-0_0
 62
    7
 10
52.103606999999997
 20
75.168243000000004
 40
3.2200000000000002
 41
0.678995
 50
0
  1
t;3.0 巾；30　
  0
TEXT
  8
_0-0_0
 62
    7
 10
52.271008000000002
 20
71.762801999999994
 40
3.2200000000000002
 41
0.672878
 50
0
  1
ブラケットL=58
  0
LINE
  8
_0-0_0
  6
CONTINUOUS
 62
    7
 10
90.808058000000003
 20
62.074787999999998
 11
75.968857999999997
 21
70.822125
  0
LINE
  8
_0-0_0
  6
CONTINUOUS
 62
    7
 10
90.808058000000003
 20
62.074787999999998
 11
88.223657000000003
 21
63.598229000000003
  0
LINE
  8
_0-0_0
  6
CONTINUOUS
 62
    7
 10
90.808058000000003
 20
62.074787999999998
 11
88.706012999999999
 21
64.215210999999996
  0
LINE
  8
_0-0_0
  6
CONTINUOUS
 62
    7
 10
90.808058000000003
 20
62.074787999999998
 11
87.917422999999999
 21
62.877426999999997
  0
LINE
  8
_0-0_0
  6
CONTINUOUS
 62
    7
 10
75.968857999999997
 20
70.822125
 11
51.330067999999997
 21
70.822125
  0
ENDBLK
  0
BLOCK
  2
-047-BLKF0054
 70
   64
 10
0
 20
0
 30
0
  0
TEXT
  8
_0-0_0
 62
    7
 10
126.963554
 20
73.381195000000005
 40
3.2200000000000002
 41
0.6773639999999998
 50
0
  1
横ル-ズ穴9Ｘ40
  0
LINE
  8
_0-0_0
  6
CONTINUOUS
 62
    5
 10
114.49664300000001
 20
62.486778999999999
 11
125.637603
 21
72.381197999999998
  0
LINE
  8
_0-0_0
  6
CONTINUOUS
 62
    5
 10
114.49664300000001
 20
62.486778999999999
 11
116.73973599999999
 21
64.478897000000003
  0
LINE
  8
_0-0_0
  6
CONTINUOUS
 62
    5
 10
114.49664300000001
 20
62.486778999999999
 11
117.17890300000001
 21
63.830463000000002
  0
LINE
  8
_0-0_0
  6
CONTINUOUS
 62
    5
 10
114.49664300000001
 20
62.486778999999999
 11
116.147707
 21
64.991573000000002
  0
LINE
  8
_0-0_0
  6
CONTINUOUS
 62
    5
 10
125.637603
 20
72.381197999999998
 11
147.59356199999999
 21
72.381197999999998
  0
ENDBLK
  0
BLOCK
  2
-048-BLKF0055
 70
   64
 10
0
 20
0
 30
0
  0
LINE
  8
_0-0_0
  6
CONTINUOUS
 62
    3
 10
98.684798000000001
 20
61.598274000000004
 11
100.809798
 21
61.598274000000004
  0
LINE
  8
_0-0_0
  6
CONTINUOUS
 62
    3
 10
90.684798000000001
 20
61.598274000000004
 11
117.684798
 21
61.598274000000004
  0
LINE
  8
_0-0_0
  6
CONTINUOUS
 62
    3
 10
90.684798000000001
 20
63.098272999999999
 11
117.684798
 21
63.098272999999999
  0
LINE
  8
_0-0_0
  6
CONTINUOUS
 62
    3
 10
117.684798
 20
63.098272999999999
 11
117.684798
 21
61.598274000000004
  0
LINE
  8
_0-0_0
  6
CONTINUOUS
 62
    3
 10
117.684798
 20
62.598272999999999
 11
117.684798
 21
61.598274000000004
  0
LINE
  8
_0-0_0
  6
PHANTOM
 62
    7
 10
105.184798
 20
63.098272999999999
 11
105.184798
 21
61.598274000000004
  0
LINE
  8
_0-0_0
  6
PHANTOM
 62
    7
 10
105.684798
 20
63.098272999999999
 11
105.684798
 21
61.598274000000004
  0
LINE
  8
_0-0_0
  6
PHANTOM
 62
    7
 10
106.184798
 20
63.098272999999999
 11
106.184798
 21
61.598274000000004
  0
LINE
  8
_0-0_0
  6
PHANTOM
 62
    7
 10
106.684798
 20
63.098272999999999
 11
106.684798
 21
61.598274000000004
  0
LINE
  8
_0-0_0
  6
PHANTOM
 62
    7
 10
107.184798
 20
63.098272999999999
 11
107.184798
 21
61.598274000000004
  0
LINE
  8
_0-0_0
  6
PHANTOM
 62
    7
 10
107.684798
 20
63.098272999999999
 11
107.684798
 21
61.598274000000004
  0
LINE
  8
_0-0_0
  6
PHANTOM
 62
    7
 10
108.184798
 20
63.098272999999999
 11
108.184798
 21
61.598274000000004
  0
LINE
  8
_0-0_0
  6
PHANTOM
 62
    7
 10
108.684798
 20
63.098272999999999
 11
108.684798
 21
61.598274000000004
  0
LINE
  8
_0-0_0
  6
PHANTOM
 62
    7
 10
109.184798
 20
63.098272999999999
 11
109.184798
 21
61.598274000000004
  0
LINE
  8
_0-0_0
  6
PHANTOM
 62
    7
 10
109.684798
 20
63.098272999999999
 11
109.684798
 21
61.598274000000004
  0
LINE
  8
_0-0_0
  6
PHANTOM
 62
    7
 10
110.184798
 20
63.098272999999999
 11
110.184798
 21
61.598274000000004
  0
LINE
  8
_0-0_0
  6
PHANTOM
 62
    7
 10
110.684798
 20
63.098272999999999
 11
110.684798
 21
61.598274000000004
  0
LINE
  8
_0-0_0
  6
PHANTOM
 62
    7
 10
111.184798
 20
63.098272999999999
 11
111.184798
 21
61.598274000000004
  0
LINE
  8
_0-0_0
  6
PHANTOM
 62
    7
 10
111.684798
 20
63.098272999999999
 11
111.684798
 21
61.598274000000004
  0
LINE
  8
_0-0_0
  6
PHANTOM
 62
    7
 10
112.184798
 20
63.098272999999999
 11
112.184798
 21
61.598274000000004
  0
LINE
  8
_0-0_0
  6
PHANTOM
 62
    7
 10
112.684798
 20
63.098272999999999
 11
112.684798
 21
61.598274000000004
  0
LINE
  8
_0-0_0
  6
PHANTOM
 62
    7
 10
113.184799
 20
63.098272999999999
 11
113.184799
 21
61.598274000000004
  0
LINE
  8
_0-0_0
  6
PHANTOM
 62
    7
 10
113.684798
 20
63.098272999999999
 11
113.684798
 21
61.598274000000004
  0
LINE
  8
_0-0_0
  6
PHANTOM
 62
    7
 10
114.184798
 20
63.098272999999999
 11
114.184798
 21
61.598274000000004
  0
LINE
  8
_0-0_0
  6
PHANTOM
 62
    7
 10
114.684798
 20
63.098272999999999
 11
114.684798
 21
61.598274000000004
  0
LINE
  8
_0-0_0
  6
PHANTOM
 62
    7
 10
115.184798
 20
63.098272999999999
 11
115.184798
 21
61.598274000000004
  0
LINE
  8
_0-0_0
  6
PHANTOM
 62
    7
 10
104.58479800000001
 20
63.098272999999999
 11
104.58479800000001
 21
61.598274000000004
  0
LINE
  8
_0-0_0
  6
PHANTOM
 62
    7
 10
104.684798
 20
63.098272999999999
 11
104.684798
 21
61.598274000000004
  0
LINE
  8
_0-0_0
  6
PHANTOM
 62
    7
 10
104.184798
 20
63.098272999999999
 11
104.184798
 21
61.598274000000004
  0
LINE
  8
_0-0_0
  6
PHANTOM
 62
    7
 10
103.684798
 20
63.098272999999999
 11
103.684798
 21
61.598274000000004
  0
LINE
  8
_0-0_0
  6
PHANTOM
 62
    7
 10
103.184798
 20
63.098272999999999
 11
103.184798
 21
61.598274000000004
  0
LINE
  8
_0-0_0
  6
PHANTOM
 62
    7
 10
102.684798
 20
63.098272999999999
 11
102.684798
 21
61.598274000000004
  0
LINE
  8
_0-0_0
  6
PHANTOM
 62
    7
 10
102.184798
 20
63.098272999999999
 11
102.184798
 21
61.598274000000004
  0
LINE
  8
_0-0_0
  6
PHANTOM
 62
    7
 10
101.684798
 20
63.098272999999999
 11
101.684798
 21
61.598274000000004
  0
LINE
  8
_0-0_0
  6
PHANTOM
 62
    7
 10
101.184798
 20
63.098272999999999
 11
101.184798
 21
61.598274000000004
  0
LINE
  8
_0-0_0
  6
PHANTOM
 62
    7
 10
100.684798
 20
63.098272999999999
 11
100.684798
 21
61.598274000000004
  0
LINE
  8
_0-0_0
  6
PHANTOM
 62
    7
 10
100.184798
 20
63.098272999999999
 11
100.184798
 21
61.598274000000004
  0
LINE
  8
_0-0_0
  6
PHANTOM
 62
    7
 10
99.684798000000001
 20
63.098272999999999
 11
99.684798000000001
 21
61.598274000000004
  0
LINE
  8
_0-0_0
  6
PHANTOM
 62
    7
 10
99.184798000000001
 20
63.098272999999999
 11
99.184798000000001
 21
61.598274000000004
  0
LINE
  8
_0-0_0
  6
PHANTOM
 62
    7
 10
98.684798000000001
 20
63.098272999999999
 11
98.684798000000001
 21
61.598274000000004
  0
LINE
  8
_0-0_0
  6
PHANTOM
 62
    7
 10
98.184798000000001
 20
63.098272999999999
 11
98.184798000000001
 21
61.598274000000004
  0
LINE
  8
_0-0_0
  6
PHANTOM
 62
    7
 10
97.684798000000001
 20
63.098272999999999
 11
97.684798000000001
 21
61.598274000000004
  0
LINE
  8
_0-0_0
  6
PHANTOM
 62
    7
 10
97.184798000000001
 20
63.098272999999999
 11
97.184798000000001
 21
61.598274000000004
  0
LINE
  8
_0-0_0
  6
PHANTOM
 62
    7
 10
96.684798000000001
 20
63.098272999999999
 11
96.684798000000001
 21
61.598274000000004
  0
LINE
  8
_0-0_0
  6
PHANTOM
 62
    7
 10
96.184798000000001
 20
63.098272999999999
 11
96.184798000000001
 21
61.598274000000004
  0
LINE
  8
_0-0_0
  6
PHANTOM
 62
    7
 10
95.684798000000001
 20
63.098272999999999
 11
95.684798000000001
 21
61.598274000000004
  0
LINE
  8
_0-0_0
  6
PHANTOM
 62
    7
 10
95.184798000000001
 20
63.098272999999999
 11
95.184798000000001
 21
61.598274000000004
  0
ARC
  8
_0-0_0
  6
CONTINUOUS
 62
    3
 10
90.684798000000001
 20
61.098274000000004
 40
0.5
 50
90
 51
180
  0
ARC
  8
_0-0_0
  6
CONTINUOUS
 62
    3
 10
90.684798000000001
 20
61.098274000000004
 40
2
 50
90
 51
180
  0
LINE
  8
_0-0_0
  6
CONTINUOUS
 62
    3
 10
90.184798000000001
 20
61.098274000000004
 11
90.184798000000001
 21
47.098274000000004
  0
LINE
  8
_0-0_0
  6
CENTER
 62
    7
 10
88.684798000000001
 20
59.598274000000004
 11
90.184798000000001
 21
59.598274000000004
  0
LINE
  8
_0-0_0
  6
CENTER
 62
    7
 10
88.684798000000001
 20
49.598274000000004
 11
90.184798000000001
 21
49.598274000000004
  0
LINE
  8
_0-0_0
  6
CENTER
 62
    7
 10
88.684798000000001
 20
59.098274000000004
 11
90.184798000000001
 21
59.098274000000004
  0
LINE
  8
_0-0_0
  6
CENTER
 62
    7
 10
88.684798000000001
 20
58.598274000000004
 11
90.184798000000001
 21
58.598274000000004
  0
LINE
  8
_0-0_0
  6
CENTER
 62
    7
 10
88.684798000000001
 20
58.098272999999999
 11
90.184798000000001
 21
58.098272999999999
  0
LINE
  8
_0-0_0
  6
CENTER
 62
    7
 10
88.684798000000001
 20
57.598272999999999
 11
90.184798000000001
 21
57.598272999999999
  0
LINE
  8
_0-0_0
  6
CENTER
 62
    7
 10
88.684798000000001
 20
57.098274000000004
 11
90.184798000000001
 21
57.098274000000004
  0
LINE
  8
_0-0_0
  6
CENTER
 62
    7
 10
88.684798000000001
 20
56.598274000000004
 11
90.184798000000001
 21
56.598274000000004
  0
LINE
  8
_0-0_0
  6
CENTER
 62
    7
 10
88.684798000000001
 20
56.098274000000004
 11
90.184798000000001
 21
56.098274000000004
  0
LINE
  8
_0-0_0
  6
CENTER
 62
    7
 10
88.684798000000001
 20
55.598272999999999
 11
90.184798000000001
 21
55.598272999999999
  0
LINE
  8
_0-0_0
  6
CENTER
 62
    7
 10
88.684798000000001
 20
55.098272999999999
 11
90.184798000000001
 21
55.098272999999999
  0
LINE
  8
_0-0_0
  6
CENTER
 62
    7
 10
88.684798000000001
 20
54.598274000000004
 11
90.184798000000001
 21
54.598274000000004
  0
LINE
  8
_0-0_0
  6
CENTER
 62
    7
 10
88.684798000000001
 20
54.098274000000004
 11
90.184798000000001
 21
54.098274000000004
  0
LINE
  8
_0-0_0
  6
CENTER
 62
    7
 10
88.684798000000001
 20
53.598274000000004
 11
90.184798000000001
 21
53.598274000000004
  0
LINE
  8
_0-0_0
  6
CENTER
 62
    7
 10
88.684798000000001
 20
53.098272999999999
 11
90.184798000000001
 21
53.098272999999999
  0
LINE
  8
_0-0_0
  6
CENTER
 62
    7
 10
88.684798000000001
 20
52.598272999999999
 11
90.184798000000001
 21
52.598272999999999
  0
LINE
  8
_0-0_0
  6
CENTER
 62
    7
 10
88.684798000000001
 20
52.098274000000004
 11
90.184798000000001
 21
52.098274000000004
  0
LINE
  8
_0-0_0
  6
CENTER
 62
    7
 10
88.684798000000001
 20
51.598274000000004
 11
90.184798000000001
 21
51.598274000000004
  0
LINE
  8
_0-0_0
  6
CENTER
 62
    7
 10
88.684798000000001
 20
51.098274000000004
 11
90.184798000000001
 21
51.098274000000004
  0
LINE
  8
_0-0_0
  6
CENTER
 62
    7
 10
88.684798000000001
 20
50.598272999999999
 11
90.184798000000001
 21
50.598272999999999
  0
LINE
  8
_0-0_0
  6
CENTER
 62
    7
 10
88.684798000000001
 20
50.098272999999999
 11
90.184798000000001
 21
50.098272999999999
  0
LINE
  8
_0-0_0
  6
CENTER
 62
    7
 10
88.684798000000001
 20
49.598274000000004
 11
90.184798000000001
 21
49.598274000000004
  0
LINE
  8
_0-0_0
  6
CONTINUOUS
 62
    3
 10
88.684798000000001
 20
47.098274000000004
 11
90.184798000000001
 21
47.098274000000004
  0
LINE
  8
_0-0_0
  6
CONTINUOUS
 62
    3
 10
88.684798000000001
 20
61.098274000000004
 11
88.684798000000001
 21
47.098274000000004
  0
ENDBLK
  0
BLOCK
  2
-049-BLKF0056
 70
   64
 10
0
 20
0
 30
0
  0
LINE
  8
_0-0_0
  6
CONTINUOUS
 62
    7
 10
71.215571999999995
 20
58.276994999999999
 11
72.709417999999999
 21
58.141250999999997
  0
LINE
  8
_0-0_0
  6
CONTINUOUS
 62
    7
 10
71.215571999999995
 20
58.276994999999999
 11
70.966615000000004
 21
55.537256999999997
  0
LINE
  8
_0-0_0
  6
CONTINUOUS
 62
    7
 10
70.944084000000004
 20
55.539304999999999
 11
78.435840999999996
 21
54.858536999999998
  0
LINE
  8
_0-0_0
  6
CONTINUOUS
 62
    7
 10
73.954305000000005
 20
55.265770000000003
 11
74.203263000000007
 21
58.005505999999997
  0
LINE
  8
_0-0_0
  6
CONTINUOUS
 62
    7
 10
72.709417999999999
 20
58.141250999999997
 11
74.158015000000006
 21
57.507559000000001
  0
LINE
  8
_0-0_0
  6
CONTINUOUS
 62
    7
 10
75.448150999999996
 20
55.130025000000003
 11
75.697108
 21
57.869762000000001
  0
LINE
  8
_0-0_0
  6
CONTINUOUS
 62
    7
 10
74.203263000000007
 20
58.005505999999997
 11
75.651859999999999
 21
57.371814000000001
  0
LINE
  8
_0-0_0
  6
CONTINUOUS
 62
    7
 10
76.941996000000003
 20
54.994281000000001
 11
77.190952999999993
 21
57.734017999999999
  0
LINE
  8
_0-0_0
  6
CONTINUOUS
 62
    7
 10
75.697108
 20
57.869762000000001
 11
77.145705000000007
 21
57.236069000000001
  0
LINE
  8
_0-0_0
  6
CONTINUOUS
 62
    7
 10
72.709417999999999
 20
58.141250999999997
 11
72.460459999999998
 21
55.401513000000001
  0
LINE
  8
_0-0_0
  6
CONTINUOUS
 62
    7
 10
77.190952999999993
 20
57.734017999999999
 11
78.684798000000001
 21
57.598272999999999
  0
LINE
  8
_0-0_0
  6
CONTINUOUS
 62
    7
 10
69.684798000000001
 20
57.098272999999999
 11
69.684798000000001
 21
54.598272999999999
  0
LINE
  8
_0-0_0
  6
CONTINUOUS
 62
    7
 10
69.684798000000001
 20
57.098272999999999
 11
71.108463
 21
56.848272999999999
  0
LINE
  8
_0-0_0
  6
CONTINUOUS
 62
    7
 10
78.435840999999996
 20
54.858536999999998
 11
78.435840999999996
 21
54.598272999999999
  0
LINE
  8
_0-0_0
  6
CONTINUOUS
 62
    7
 10
71.215571999999995
 20
50.919553000000001
 11
72.709417999999999
 21
51.055297000000003
  0
LINE
  8
_0-0_0
  6
CONTINUOUS
 62
    7
 10
71.215571999999995
 20
50.919553000000001
 11
70.966615000000004
 21
53.659289999999999
  0
LINE
  8
_0-0_0
  6
CONTINUOUS
 62
    7
 10
70.944084000000004
 20
53.657241999999997
 11
78.435840999999996
 21
54.338011000000002
  0
LINE
  8
_0-0_0
  6
CONTINUOUS
 62
    7
 10
73.954305000000005
 20
53.930779000000001
 11
74.203263000000007
 21
51.191042000000003
  0
LINE
  8
_0-0_0
  6
CONTINUOUS
 62
    7
 10
72.709417999999999
 20
51.055297000000003
 11
74.158015000000006
 21
51.688988999999999
  0
LINE
  8
_0-0_0
  6
CONTINUOUS
 62
    7
 10
75.448150999999996
 20
54.066524000000001
 11
75.697108
 21
51.326785999999998
  0
LINE
  8
_0-0_0
  6
CONTINUOUS
 62
    7
 10
74.203263000000007
 20
51.191042000000003
 11
75.651859999999999
 21
51.824733999999999
  0
LINE
  8
_0-0_0
  6
CONTINUOUS
 62
    7
 10
76.941996000000003
 20
54.202266999999999
 11
77.190952999999993
 21
51.462530000000001
  0
LINE
  8
_0-0_0
  6
CONTINUOUS
 62
    7
 10
75.697108
 20
51.326785999999998
 11
77.145705000000007
 21
51.960478999999999
  0
LINE
  8
_0-0_0
  6
CONTINUOUS
 62
    7
 10
72.709417999999999
 20
51.055297000000003
 11
72.460459999999998
 21
53.795034999999999
  0
LINE
  8
_0-0_0
  6
CONTINUOUS
 62
    7
 10
77.190952999999993
 20
51.462530000000001
 11
78.684798000000001
 21
51.598272999999999
  0
LINE
  8
_0-0_0
  6
CONTINUOUS
 62
    7
 10
69.684798000000001
 20
52.098272999999999
 11
69.684798000000001
 21
54.598272999999999
  0
LINE
  8
_0-0_0
  6
CONTINUOUS
 62
    7
 10
69.684798000000001
 20
52.098272999999999
 11
71.108463
 21
52.348272999999999
  0
LINE
  8
_0-0_0
  6
CONTINUOUS
 62
    7
 10
78.435840999999996
 20
51.598272999999999
 11
78.435840999999996
 21
57.620896999999999
  0
LINE
  8
_0-0_0
  6
CONTINUOUS
 62
    7
 10
78.684798000000001
 20
51.598272999999999
 11
88.684798000000001
 21
51.598272999999999
  0
LINE
  8
_0-0_0
  6
CONTINUOUS
 62
    7
 10
78.684798000000001
 20
57.598272999999999
 11
88.684798000000001
 21
57.598272999999999
  0
LINE
  8
_0-0_0
  6
CONTINUOUS
 62
    7
 10
91.184798000000001
 20
50.348272999999999
 11
90.184798000000001
 21
50.348272999999999
  0
LINE
  8
_0-0_0
  6
CONTINUOUS
 62
    7
 10
91.184798000000001
 20
50.348272999999999
 11
91.184798000000001
 21
58.848272999999999
  0
LINE
  8
_0-0_0
  6
CONTINUOUS
 62
    7
 10
91.184798000000001
 20
58.848272999999999
 11
90.184798000000001
 21
58.848272999999999
  0
LINE
  8
_0-0_0
  6
CONTINUOUS
 62
    7
 10
91.184798000000001
 20
58.348272999999999
 11
95.015726000000001
 21
58.348272999999999
  0
LINE
  8
_0-0_0
  6
CONTINUOUS
 62
    7
 10
92.184798000000001
 20
50.848272999999999
 11
92.184798000000001
 21
58.348272999999999
  0
LINE
  8
_0-0_0
  6
CONTINUOUS
 62
    7
 10
92.184798000000001
 20
54.295924999999997
 11
91.184798000000001
 21
55.419894999999997
  0
LINE
  8
_0-0_0
  6
CONTINUOUS
 62
    7
 10
92.184798000000001
 20
53.875855999999999
 11
91.184798000000001
 21
54.999825999999999
  0
LINE
  8
_0-0_0
  6
CONTINUOUS
 62
    7
 10
95.015726000000001
 20
56.473272999999999
 11
92.184798000000001
 21
56.473272999999999
  0
ARC
  8
_0-0_0
  6
CONTINUOUS
 62
    7
 10
91.030726000000001
 20
54.598272999999999
 40
4.4040710000000001
 50
334.80233800000002
 51
25.19766199999998
  0
ARC
  8
_0-0_0
  6
CONTINUOUS
 62
    7
 10
94.176629000000005
 20
57.410772999999999
 40
1.25817
 50
311.82972699999999
 51
48.170273000000066
  0
LINE
  8
_0-0_0
  6
CONTINUOUS
 62
    7
 10
95.434798000000001
 20
51.785772999999999
 11
95.434798000000001
 21
57.410772999999999
  0
LINE
  8
_0-0_0
  6
CONTINUOUS
 62
    7
 10
95.015726000000001
 20
52.723272999999999
 11
92.184798000000001
 21
52.723272999999999
  0
ARC
  8
_0-0_0
  6
CONTINUOUS
 62
    7
 10
94.176629000000005
 20
51.785772999999999
 40
1.2581690000000001
 50
311.82971199999997
 51
48.170273000000066
  0
LINE
  8
_0-0_0
  6
CONTINUOUS
 62
    7
 10
95.015726000000001
 20
50.848272999999999
 11
91.184798000000001
 21
50.848272999999999
  0
LINE
  8
_0-0_0
  6
CENTER
 62
    7
 10
67.185201000000006
 20
54.598272999999999
 11
96.741764000000003
 21
54.598272999999999
  0
ENDBLK
  0
BLOCK
  2
-050-BLKF0057
 70
   64
 10
0
 20
0
 30
0
  0
LINE
  8
_0-0_0
  6
CONTINUOUS
 62
    3
 10
107.059799
 20
61.598274000000004
 11
107.059799
 21
60.998274000000002
  0
LINE
  8
_0-0_0
  6
CONTINUOUS
 62
    3
 10
107.059799
 20
61.598274000000004
 11
99.684798999999998
 21
61.598274000000004
  0
LINE
  8
_0-0_0
  6
CONTINUOUS
 62
    3
 10
98.684798000000001
 20
60.598272999999999
 11
98.684798000000001
 21
60.139637999999998
  0
LINE
  8
_0-0_0
  6
CONTINUOUS
 62
    3
 10
99.684798999999998
 20
53.598272999999999
 11
107.059799
 21
53.598272999999999
  0
LINE
  8
_0-0_0
  6
CONTINUOUS
 62
    3
 10
107.059799
 20
53.598272999999999
 11
107.059799
 21
54.198273999999998
  0
POINT
  8
_0-0_0
 62
    7
 10
98.684798000000001
 20
57.598272999999999
  0
LINE
  8
_0-0_0
  6
CONTINUOUS
 62
    3
 10
99.434798000000001
 20
59.423273000000002
 11
99.434798000000001
 21
57.748274000000002
  0
LINE
  8
_0-0_0
  6
CONTINUOUS
 62
    3
 10
100.184799
 20
59.860320000000002
 11
100.184799
 21
55.336227000000001
  0
LINE
  8
_0-0_0
  6
CONTINUOUS
 62
    3
 10
99.434798000000001
 20
59.423273000000002
 11
98.938292000000004
 21
59.704627000000002
  0
LINE
  8
_0-0_0
  6
CONTINUOUS
 62
    3
 10
99.434798000000001
 20
55.773273000000003
 11
98.938292000000004
 21
55.49192
  0
LINE
  8
_0-0_0
  6
CONTINUOUS
 62
    3
 10
105.934799
 20
60.998274000000002
 11
107.059799
 21
60.998274000000002
  0
LINE
  8
_0-0_0
  6
CONTINUOUS
 62
    3
 10
105.934799
 20
54.198273999999998
 11
107.059799
 21
54.198273999999998
  0
LINE
  8
_0-0_0
  6
CONTINUOUS
 62
    3
 10
105.934799
 20
60.998274000000002
 11
105.934799
 21
59.648273000000003
  0
LINE
  8
_0-0_0
  6
CONTINUOUS
 62
    3
 10
105.934799
 20
54.198273999999998
 11
105.934799
 21
55.548273000000002
  0
LINE
  8
_0-0_0
  6
CONTINUOUS
 62
    3
 10
105.184799
 20
60.848272999999999
 11
105.184799
 21
58.689145000000003
  0
LINE
  8
_0-0_0
  6
CONTINUOUS
 62
    3
 10
105.184799
 20
54.348272999999999
 11
105.184799
 21
56.507401999999999
  0
LINE
  8
_0-0_0
  6
CONTINUOUS
 62
    3
 10
105.184799
 20
60.848272999999999
 11
99.684798999999998
 21
60.848272999999999
  0
LINE
  8
_0-0_0
  6
CONTINUOUS
 62
    3
 10
105.184799
 20
54.348272999999999
 11
99.684798999999998
 21
54.348272999999999
  0
LINE
  8
_0-0_0
  6
CONTINUOUS
 62
    3
 10
100.184799
 20
59.860320000000002
 11
99.561544999999995
 21
60.213496999999997
  0
LINE
  8
_0-0_0
  6
CONTINUOUS
 62
    3
 10
100.184799
 20
55.336227000000001
 11
99.561544999999995
 21
54.983049999999999
  0
LINE
  8
_0-0_0
  6
CONTINUOUS
 62
    3
 10
99.434798000000001
 20
60.598272999999999
 11
99.434798000000001
 21
60.431002999999997
  0
LINE
  8
_0-0_0
  6
CONTINUOUS
 62
    3
 10
99.434798000000001
 20
54.765543999999998
 11
99.434798000000001
 21
54.598272999999999
  0
LINE
  8
_0-0_0
  6
CONTINUOUS
 62
    3
 10
98.684798000000001
 20
55.056908999999997
 11
98.684798000000001
 21
54.598272999999999
  0
ARC
  8
_0-0_0
  6
CONTINUOUS
 62
    3
 10
99.684798999999998
 20
60.598272999999999
 40
1
 50
90
 51
180
  0
ARC
  8
_0-0_0
  6
CONTINUOUS
 62
    3
 10
99.684798999999998
 20
54.598272999999999
 40
1
 50
180
 51
270
  0
ARC
  8
_0-0_0
  6
CONTINUOUS
 62
    3
 10
99.184798000000001
 20
55.056908999999997
 40
0.5
 50
119.53878199999998
 51
180
  0
ARC
  8
_0-0_0
  6
CONTINUOUS
 62
    3
 10
99.184798000000001
 20
60.139637999999998
 40
0.5
 50
180
 51
240.46121799999997
  0
ARC
  8
_0-0_0
  6
CONTINUOUS
 62
    3
 10
99.684798999999998
 20
60.598272999999999
 40
0.25
 50
90
 51
180
  0
ARC
  8
_0-0_0
  6
CONTINUOUS
 62
    3
 10
99.684798999999998
 20
60.431002999999997
 40
0.25
 50
180
 51
240.46121799999997
  0
ARC
  8
_0-0_0
  6
CONTINUOUS
 62
    3
 10
99.684798999999998
 20
54.765543999999998
 40
0.25
 50
119.53878199999998
 51
180
  0
ARC
  8
_0-0_0
  6
CONTINUOUS
 62
    3
 10
99.684798999999998
 20
54.598272999999999
 40
0.25
 50
180
 51
270
  0
LINE
  8
_0-0_0
  6
CONTINUOUS
 62
    3
 10
118.184798
 20
61.598274000000004
 11
111.309798
 21
61.598274000000004
  0
LINE
  8
_0-0_0
  6
CONTINUOUS
 62
    3
 10
111.309798
 20
61.598274000000004
 11
111.309798
 21
60.998274000000002
  0
LINE
  8
_0-0_0
  6
CONTINUOUS
 62
    3
 10
111.309798
 20
60.998274000000002
 11
112.434798
 21
60.998274000000002
  0
LINE
  8
_0-0_0
  6
CONTINUOUS
 62
    3
 10
111.309798
 20
54.198273999999998
 11
111.309798
 21
53.598272999999999
  0
LINE
  8
_0-0_0
  6
CONTINUOUS
 62
    3
 10
111.309798
 20
53.598272999999999
 11
118.184798
 21
53.598272999999999
  0
LINE
  8
_0-0_0
  6
CONTINUOUS
 62
    3
 10
111.309798
 20
54.198273999999998
 11
112.434798
 21
54.198273999999998
  0
LINE
  8
_0-0_0
  6
CONTINUOUS
 62
    3
 10
118.684798
 20
61.098272999999999
 11
118.684798
 21
60.498272999999998
  0
LINE
  8
_0-0_0
  6
CONTINUOUS
 62
    3
 10
118.684798
 20
54.098274000000004
 11
118.684798
 21
54.698273999999998
  0
LINE
  8
_0-0_0
  6
CONTINUOUS
 62
    3
 10
117.934798
 20
60.848272999999999
 11
117.934798
 21
60.498272999999998
  0
LINE
  8
_0-0_0
  6
CONTINUOUS
 62
    3
 10
117.934798
 20
54.348272999999999
 11
117.934798
 21
54.698273999999998
  0
LINE
  8
_0-0_0
  6
CONTINUOUS
 62
    3
 10
112.434798
 20
60.998274000000002
 11
112.434798
 21
59.748274000000002
  0
LINE
  8
_0-0_0
  6
CONTINUOUS
 62
    3
 10
112.434798
 20
54.198273999999998
 11
112.434798
 21
55.448273999999998
  0
LINE
  8
_0-0_0
  6
CONTINUOUS
 62
    3
 10
113.184798
 20
60.848272999999999
 11
113.184798
 21
59.148274000000001
  0
LINE
  8
_0-0_0
  6
CONTINUOUS
 62
    3
 10
113.184798
 20
54.348272999999999
 11
113.184798
 21
56.048273999999999
  0
LINE
  8
_0-0_0
  6
CONTINUOUS
 62
    3
 10
117.934798
 20
60.498272999999998
 11
118.684798
 21
60.498272999999998
  0
LINE
  8
_0-0_0
  6
CONTINUOUS
 62
    3
 10
117.934798
 20
54.698273999999998
 11
118.684798
 21
54.698273999999998
  0
LINE
  8
_0-0_0
  6
CONTINUOUS
 62
    3
 10
113.184798
 20
60.848272999999999
 11
117.934798
 21
60.848272999999999
  0
LINE
  8
_0-0_0
  6
CONTINUOUS
 62
    3
 10
113.184798
 20
54.348272999999999
 11
117.934798
 21
54.348272999999999
  0
ARC
  8
_0-0_0
  6
CONTINUOUS
 62
    3
 10
118.184798
 20
61.098272999999999
 40
0.5
 50
0
 51
90
  0
ARC
  8
_0-0_0
  6
CONTINUOUS
 62
    3
 10
118.184798
 20
54.098274000000004
 40
0.5
 50
270
 51
0
  0
LINE
  8
_0-0_0
  6
CONTINUOUS
 62
    3
 10
107.184799
 20
58.898273000000003
 11
107.184799
 21
56.298273000000002
  0
LINE
  8
_0-0_0
  6
CONTINUOUS
 62
    3
 10
107.184799
 20
58.898273000000003
 11
110.58479800000001
 21
58.898273000000003
  0
LINE
  8
_0-0_0
  6
CONTINUOUS
 62
    3
 10
107.184799
 20
56.298273000000002
 11
110.58479800000001
 21
56.298273000000002
  0
LINE
  8
_0-0_0
  6
CONTINUOUS
 62
    3
 10
113.184798
 20
59.148274000000001
 11
110.784302
 21
58.908223999999997
  0
LINE
  8
_0-0_0
  6
CONTINUOUS
 62
    3
 10
112.434798
 20
59.748274000000002
 11
110.684799
 21
59.648273000000003
  0
LINE
  8
_0-0_0
  6
CONTINUOUS
 62
    3
 10
110.684798
 20
55.548273000000002
 11
112.434798
 21
55.448273999999998
  0
LINE
  8
_0-0_0
  6
CONTINUOUS
 62
    3
 10
105.934799
 20
59.648273000000003
 11
110.684799
 21
59.648273000000003
  0
LINE
  8
_0-0_0
  6
CONTINUOUS
 62
    3
 10
105.934799
 20
55.548273000000002
 11
110.684798
 21
55.548273000000002
  0
POINT
  8
_0-0_0
 62
    7
 10
98.684798000000001
 20
59.848272999999999
  0
POINT
  8
_0-0_0
 62
    7
 10
98.684798000000001
 20
55.348274000000004
  0
ARC
  8
_0-0_0
  6
CONTINUOUS
 62
    3
 10
110.684798
 20
58.898273000000003
 40
0.1
 50
180
 51
5.7105929999999603
  0
ARC
  8
_0-0_0
  6
CONTINUOUS
 62
    3
 10
110.684798
 20
56.298273000000002
 40
0.1
 50
354.28940699999998
 51
180
  0
LINE
  8
_0-0_0
  6
CONTINUOUS
 62
    3
 10
110.784302
 20
56.288322999999998
 11
113.184798
 21
56.048273999999999
  0
ARC
  8
_0-0_0
  6
CONTINUOUS
 62
    3
 10
105.684798
 20
57.598272999999999
 40
1.2
 50
224.47751200000002
 51
245.37568200000004
  0
ARC
  8
_0-0_0
  6
CONTINUOUS
 62
    3
 10
104.999813
 20
56.925669999999997
 40
0.2399999999999999
 50
119.99999999999999
 51
224.47751199999999
  0
ARC
  8
_0-0_0
  6
CONTINUOUS
 62
    3
 10
104.999813
 20
56.925669999999997
 40
0.2399999999999999
 50
44.477511999999997
 51
119.99999999999999
  0
ARC
  8
_0-0_0
  6
CONTINUOUS
 62
    3
 10
105.684798
 20
57.598272999999999
 40
0.7199999999999997
 50
224.47751200000002
 51
135.52248800000001
  0
ARC
  8
_0-0_0
  6
CONTINUOUS
 62
    3
 10
104.999813
 20
58.270876999999999
 40
0.2399999999999999
 50
135.52248800000001
 51
240.00000000000003
  0
ARC
  8
_0-0_0
  6
CONTINUOUS
 62
    3
 10
104.999813
 20
58.270876999999999
 40
0.2399999999999999
 50
239.99999999999997
 51
315.52248800000001
  0
ARC
  8
_0-0_0
  6
CONTINUOUS
 62
    3
 10
105.684798
 20
57.598272999999999
 40
1.2
 50
114.62431799999997
 51
135.52248799999998
  0
LINE
  8
_0-0_0
  6
CONTINUOUS
 62
    3
 10
99.434798000000001
 20
57.448273
 11
99.434798000000001
 21
55.773273000000003
  0
LINE
  8
_0-0_0
  6
CONTINUOUS
 62
    3
 10
99.584798000000006
 20
57.598272999999999
 11
99.434798000000001
 21
57.448273
  0
LINE
  8
_0-0_0
  6
CONTINUOUS
 62
    3
 10
99.434798000000001
 20
57.748274000000002
 11
99.584798000000006
 21
57.598272999999999
  0
ENDBLK
  0
BLOCK
  2
-051-BLKF0058
 70
   64
 10
0
 20
0
 30
0
  0
LINE
  8
_0-0_0
  6
CONTINUOUS
 62
    7
 10
111.22735299999999
 20
67.836995999999999
 11
111.22735299999999
 21
68.462126999999995
  0
LINE
  8
_0-0_0
  6
CONTINUOUS
 62
    7
 10
110.818842
 20
68.870637000000002
 11
107.550757
 21
68.870637000000002
  0
LINE
  8
_0-0_0
  6
CONTINUOUS
 62
    7
 10
107.142246
 20
68.462126999999995
 11
107.142246
 21
67.836995999999999
  0
LINE
  8
_0-0_0
  6
CONTINUOUS
 62
    7
 10
110.818842
 20
67.836995999999999
 11
110.818842
 21
68.870637000000002
  0
LINE
  8
_0-0_0
  6
CONTINUOUS
 62
    7
 10
107.550757
 20
68.870637000000002
 11
107.550757
 21
67.836995999999999
  0
LINE
  8
_0-0_0
  6
CONTINUOUS
 62
    7
 10
111.22735299999999
 20
68.462126999999995
 11
110.818842
 21
68.870637000000002
  0
LINE
  8
_0-0_0
  6
CONTINUOUS
 62
    7
 10
107.142246
 20
68.462126999999995
 11
107.550757
 21
68.870637000000002
  0
LINE
  8
_0-0_0
  6
CONTINUOUS
 62
    7
 10
111.22735299999999
 20
68.462126999999995
 11
107.142246
 21
68.462126999999995
  0
ARC
  8
_0-0_0
  6
CONTINUOUS
 62
    7
 10
106.12097
 20
66.466395000000006
 40
1.370601
 50
41.829726999999998
 51
138.170288
  0
ARC
  8
_0-0_0
  6
CONTINUOUS
 62
    7
 10
109.184799
 20
63.039368000000003
 40
4.7976270000000003
 50
64.802338000000006
 51
115.19766200000002
  0
ARC
  8
_0-0_0
  6
CONTINUOUS
 62
    7
 10
112.24862899999999
 20
66.466392999999997
 40
1.3706020000000001
 50
41.829726999999998
 51
138.17027300000001
  0
LINE
  8
_0-0_0
  6
CONTINUOUS
 62
    7
 10
105.099693
 20
67.380475000000004
 11
105.099693
 21
63.969763
  0
LINE
  8
_0-0_0
  6
CONTINUOUS
 62
    7
 10
113.26990600000001
 20
63.969763
 11
113.26990600000001
 21
67.380475000000004
  0
LINE
  8
_0-0_0
  6
CONTINUOUS
 62
    7
 10
106.12097
 20
67.836995999999999
 11
112.24862899999999
 21
67.836995999999999
  0
LINE
  8
_0-0_0
  6
CONTINUOUS
 62
    7
 10
111.22735299999999
 20
67.380475000000004
 11
111.22735299999999
 21
64.841251
  0
LINE
  8
_0-0_0
  6
CONTINUOUS
 62
    7
 10
107.142246
 20
67.380475000000004
 11
107.142246
 21
64.841251
  0
LINE
  8
_0-0_0
  6
CONTINUOUS
 62
    7
 10
104.555012
 20
63.969763
 11
113.814587
 21
63.969763
  0
LINE
  8
_0-0_0
  6
CONTINUOUS
 62
    7
 10
104.555012
 20
63.969763
 11
104.555012
 21
63.098272999999999
  0
LINE
  8
_0-0_0
  6
CONTINUOUS
 62
    7
 10
113.814587
 20
63.969763
 11
113.814587
 21
63.098272999999999
  0
LINE
  8
_0-0_0
  6
CONTINUOUS
 62
    7
 10
113.26990600000001
 20
64.841251
 11
105.099693
 21
64.841251
  0
LINE
  8
_0-0_0
  6
CONTINUOUS
 62
    7
 10
108.981837
 20
63.969763
 11
109.842741
 21
64.841251
  0
LINE
  8
_0-0_0
  6
CONTINUOUS
 62
    7
 10
109.23366300000001
 20
63.969763
 11
110.094566
 21
64.841251
  0
LINE
  8
_0-0_0
  6
CENTER
 62
    7
 10
109.184799
 20
55.967106000000001
 11
109.184799
 21
70.949848000000003
  0
ENDBLK
  0
BLOCK
  2
-052-_D59
 70
   64
 10
0
 20
0
 30
0
  0
TEXT
  8
_0-0_0
 62
    7
 10
102.934799
 20
74.631714000000002
 40
3.2000000000000002
 41
0.703125
 50
0
  1
40
  0
LINE
  8
_0-0_0
  6
CONTINUOUS
 62
    5
 10
95.184798000000001
 20
65.098273000000006
 11
95.184798000000001
 21
74.631711999999993
  0
LINE
  8
_0-0_0
  6
CONTINUOUS
 62
    5
 10
115.184798
 20
65.098273000000006
 11
115.184798
 21
74.631711999999993
  0
LINE
  8
_0-0_0
  6
CONTINUOUS
 62
    5
 10
95.184798000000001
 20
73.631711999999993
 11
115.184798
 21
73.631711999999993
  0
INSERT
  2
-000-EDTIP_BLACKDOT_S
  8
_0-0_0
 10
95.184798000000001
 20
73.631711999999993
 41
1
 42
1
 50
180
  0
INSERT
  2
-001-EDTIP_BLACKDOT_E
  8
_0-0_0
 10
115.184798
 20
73.631711999999993
 41
1
 42
1
 50
0
  0
ENDBLK
  0
BLOCK
  2
-053-_D60
 70
   64
 10
0
 20
0
 30
0
  0
TEXT
  8
_0-0_0
 62
    7
 10
118.184792
 20
74.631714000000002
 40
3.2000000000000002
 41
0.703125
 50
0
  1
5
  0
LINE
  8
_0-0_0
  6
CONTINUOUS
 62
    5
 10
117.684798
 20
65.098273000000006
 11
117.684798
 21
74.631711999999993
  0
LINE
  8
_0-0_0
  6
CONTINUOUS
 62
    5
 10
115.184798
 20
73.631711999999993
 11
117.684798
 21
73.631711999999993
  0
INSERT
  2
-001-EDTIP_BLACKDOT_E
  8
_0-0_0
 10
117.684798
 20
73.631711999999993
 41
1
 42
1
 50
0
  0
LINE
  8
_0-0_0
  6
CONTINUOUS
 62
    5
 10
117.684798
 20
73.631711999999993
 11
120.434798
 21
73.631711999999993
  0
INSERT
  2
-000-EDTIP_BLACKDOT_S
  8
_0-0_0
 10
117.684798
 20
73.631711999999993
 41
1
 42
1
 50
180
  0
ENDBLK
  0
BLOCK
  2
-054-BLKF0061
 70
   64
 10
0
 20
0
 30
0
  0
LINE
  8
_0-0_0
  6
CONTINUOUS
 62
    7
 10
106.001071
 20
60.870637000000002
 11
112.368527
 21
60.870637000000002
  0
LINE
  8
_0-0_0
  6
CONTINUOUS
 62
    7
 10
107.184799
 20
60.870637000000002
 11
107.184799
 21
63.098272999999999
  0
LINE
  8
_0-0_0
  6
CONTINUOUS
 62
    7
 10
111.184799
 20
60.870637000000002
 11
111.184799
 21
63.098272999999999
  0
LINE
  8
_0-0_0
  6
CONTINUOUS
 62
    7
 10
112.368527
 20
59.770637000000001
 11
112.368527
 21
60.870637000000002
  0
LINE
  8
_0-0_0
  6
CONTINUOUS
 62
    7
 10
106.001071
 20
59.770637000000001
 11
112.368527
 21
59.770637000000001
  0
LINE
  8
_0-0_0
  6
CONTINUOUS
 62
    7
 10
106.001071
 20
59.770637000000001
 11
106.001071
 21
60.870637000000002
  0
ENDBLK
  0
BLOCK
  2
-055-_D62
 70
   64
 10
0
 20
0
 30
0
  0
TEXT
  8
_0-0_0
 62
    7
 10
194.43684400000001
 20
30.751213
 40
3.2000000000000002
 41
0.703125
 50
0
  1
W
  0
LINE
  8
_0-0_0
  6
CONTINUOUS
 62
    5
 10
98.684798000000001
 20
29.751213
 11
292.43887599999999
 21
29.751213
  0
INSERT
  2
-000-EDTIP_BLACKDOT_S
  8
_0-0_0
 10
98.684798000000001
 20
29.751213
 41
1
 42
1
 50
180
  0
INSERT
  2
-001-EDTIP_BLACKDOT_E
  8
_0-0_0
 10
292.43887599999999
 20
29.751213
 41
1
 42
1
 50
0
  0
ENDBLK
  0
BLOCK
  2
-056-_D63
 70
   64
 10
0
 20
0
 30
0
  0
TEXT
  8
_0-0_0
 62
    7
 10
158.52873199999999
 20
55.348269999999999
 40
3.2000000000000002
 41
0.703125
 50
90
  1
16
  0
LINE
  8
_0-0_0
  6
CONTINUOUS
 62
    5
 10
159.52872500000001
 20
53.598272999999999
 11
159.52872500000001
 21
61.598272999999999
  0
INSERT
  2
-000-EDTIP_BLACKDOT_S
  8
_0-0_0
 10
159.52872500000001
 20
53.598272999999999
 41
1
 42
1
 50
270
  0
INSERT
  2
-001-EDTIP_BLACKDOT_E
  8
_0-0_0
 10
159.52872500000001
 20
61.598272999999999
 41
1
 42
1
 50
90
  0
ENDBLK
  0
BLOCK
  2
-057-_D64
 70
   64
 10
0
 20
0
 30
0
  0
TEXT
  8
_0-0_0
 62
    7
 10
100.934799
 20
86.673034999999999
 40
3.2000000000000002
 41
0.703125
 50
0
  1
58
  0
LINE
  8
_0-0_0
  6
CONTINUOUS
 62
    5
 10
88.684798000000001
 20
62.098274000000004
 11
88.684798000000001
 21
86.673029
  0
LINE
  8
_0-0_0
  6
CONTINUOUS
 62
    5
 10
117.684798
 20
75.631711999999993
 11
117.684798
 21
86.673029
  0
LINE
  8
_0-0_0
  6
CONTINUOUS
 62
    5
 10
88.684798000000001
 20
85.673029
 11
117.684798
 21
85.673029
  0
INSERT
  2
-000-EDTIP_BLACKDOT_S
  8
_0-0_0
 10
88.684798000000001
 20
85.673029
 41
1
 42
1
 50
180
  0
INSERT
  2
-001-EDTIP_BLACKDOT_E
  8
_0-0_0
 10
117.684798
 20
85.673029
 41
1
 42
1
 50
0
  0
ENDBLK
  0
BLOCK
  2
-058-_D65
 70
   64
 10
0
 20
0
 30
0
  0
TEXT
  8
_0-0_0
 62
    7
 10
111.184799
 20
80.261252999999996
 40
3.2000000000000002
 41
0.703125
 50
0
  1
17
  0
LINE
  8
_0-0_0
  6
CONTINUOUS
 62
    5
 10
117.684798
 20
75.631711999999993
 11
117.684798
 21
80.261251000000001
  0
LINE
  8
_0-0_0
  6
CONTINUOUS
 62
    5
 10
109.184799
 20
79.261251000000001
 11
117.684798
 21
79.261251000000001
  0
INSERT
  2
-000-EDTIP_BLACKDOT_S
  8
_0-0_0
 10
109.184799
 20
79.261251000000001
 41
1
 42
1
 50
180
  0
INSERT
  2
-001-EDTIP_BLACKDOT_E
  8
_0-0_0
 10
117.684798
 20
79.261251000000001
 41
1
 42
1
 50
0
  0
ENDBLK
  0
BLOCK
  2
-059-_D66
 70
   64
 10
0
 20
0
 30
0
  0
TEXT
  8
_0-0_0
 62
    7
 10
96.684798999999998
 20
80.261252999999996
 40
3.2000000000000002
 41
0.703125
 50
0
  1
41
  0
LINE
  8
_0-0_0
  6
CONTINUOUS
 62
    5
 10
109.184799
 20
71.949848000000003
 11
109.184799
 21
80.261251000000001
  0
LINE
  8
_0-0_0
  6
CONTINUOUS
 62
    5
 10
88.684798000000001
 20
79.261251000000001
 11
109.184799
 21
79.261251000000001
  0
INSERT
  2
-000-EDTIP_BLACKDOT_S
  8
_0-0_0
 10
88.684798000000001
 20
79.261251000000001
 41
1
 42
1
 50
180
  0
INSERT
  2
-001-EDTIP_BLACKDOT_E
  8
_0-0_0
 10
109.184799
 20
79.261251000000001
 41
1
 42
1
 50
0
  0
ENDBLK
  0
BLOCK
  2
-060-_D67
 70
   64
 10
0
 20
0
 30
0
  0
TEXT
  8
_0-0_0
 62
    7
 10
91.434798999999998
 20
30.751213
 40
3.2000000000000002
 41
0.703125
 50
0
  1
20
  0
LINE
  8
_0-0_0
  6
CONTINUOUS
 62
    5
 10
98.684798000000001
 20
35.109814
 11
98.684798000000001
 21
28.751213
  0
LINE
  8
_0-0_0
  6
CONTINUOUS
 62
    5
 10
88.684798000000001
 20
29.751213
 11
98.684798000000001
 21
29.751213
  0
INSERT
  2
-000-EDTIP_BLACKDOT_S
  8
_0-0_0
 10
88.684798000000001
 20
29.751213
 41
1
 42
1
 50
180
  0
INSERT
  2
-001-EDTIP_BLACKDOT_E
  8
_0-0_0
 10
98.684798000000001
 20
29.751213
 41
1
 42
1
 50
0
  0
ENDBLK
  0
BLOCK
  2
-061-BLKF0068
 70
   64
 10
0
 20
0
 30
0
  0
LINE
  8
_0-0_0
  6
CONTINUOUS
 62
    5
 10
282.43887599999999
 20
54.098272999999999
 11
282.43887599999999
 21
36.109814
  0
LINE
  8
_0-0_0
  6
CONTINUOUS
 62
    5
 10
262.43887599999999
 20
54.098272999999999
 11
262.43887599999999
 21
36.109814
  0
LINE
  8
_0-0_0
  6
CONTINUOUS
 62
    5
 10
282.43887599999999
 20
37.109814
 11
262.43887599999999
 21
37.109814
  0
LINE
  8
_0-0_0
  6
CONTINUOUS
 62
    5
 10
282.43887599999999
 20
37.109814
 11
281.43887599999999
 21
37.109814
  0
CIRCLE
  8
_0-0_0
  6
CONTINUOUS
 62
    5
 10
282.43887599999999
 20
37.109814
 40
0.5
  0
CIRCLE
  8
_0-0_0
  6
CONTINUOUS
 62
    5
 10
282.43887599999999
 20
37.109814
 40
0.25
  0
LINE
  8
_0-0_0
  6
CONTINUOUS
 62
    5
 10
262.43887599999999
 20
37.109814
 11
263.43887599999999
 21
37.109814
  0
CIRCLE
  8
_0-0_0
  6
CONTINUOUS
 62
    5
 10
262.43887599999999
 20
37.109814
 40
0.5
  0
CIRCLE
  8
_0-0_0
  6
CONTINUOUS
 62
    5
 10
262.43887599999999
 20
37.109814
 40
0.25
  0
TEXT
  8
_0-0_0
 62
    7
 10
270.358856
 20
38.109814
 40
3.2200000000000002
 41
0.645963
 50
0
  1
40
  0
ENDBLK
  0
BLOCK
  2
-062-BLKF0069
 70
   64
 10
0
 20
0
 30
0
  0
LINE
  8
_0-0_0
  6
CONTINUOUS
 62
    5
 10
241.167147
 20
57.402920999999999
 11
229.247389
 21
40.345339000000003
  0
LINE
  8
_0-0_0
  6
CONTINUOUS
 62
    5
 10
241.167147
 20
57.402920999999999
 11
239.44874899999999
 21
54.943835
  0
LINE
  8
_0-0_0
  6
CONTINUOUS
 62
    5
 10
241.167147
 20
57.402920999999999
 11
240.14376100000001
 21
54.582870999999997
  0
LINE
  8
_0-0_0
  6
CONTINUOUS
 62
    5
 10
241.167147
 20
57.402920999999999
 11
238.87084400000001
 21
55.472380000000001
  0
LINE
  8
_0-0_0
  6
CONTINUOUS
 62
    5
 10
229.247389
 20
40.345339000000003
 11
193.147389
 21
40.345339000000003
  0
TEXT
  8
_0-0_0
 62
    7
 10
194.14738500000001
 20
41.345332999999997
 40
3.2200000000000002
 41
0.681289
 50
-0.0000000000000132
  1
ボ-ド（ケイカル板　ｔ；5.0）
  0
ENDBLK
  0
BLOCK
  2
-063-BLKF0070
 70
   64
 10
0
 20
0
 30
0
  0
LINE
  8
_0-0_0
  6
CONTINUOUS
 62
    5
 10
266.43887599999999
 20
63.098272999999999
 11
257.84051799999997
 21
63.098272999999999
  0
LINE
  8
_0-0_0
  6
CONTINUOUS
 62
    5
 10
258.84051799999997
 20
61.598272999999999
 11
258.84051799999997
 21
63.098272999999999
  0
LINE
  8
_0-0_0
  6
CONTINUOUS
 62
    5
 10
258.84051799999997
 20
61.598272999999999
 11
258.84051799999997
 21
62.598272999999999
  0
CIRCLE
  8
_0-0_0
  6
CONTINUOUS
 62
    5
 10
258.84051799999997
 20
61.598272999999999
 40
0.5
  0
CIRCLE
  8
_0-0_0
  6
CONTINUOUS
 62
    5
 10
258.84051799999997
 20
61.598272999999999
 40
0.25
  0
LINE
  8
_0-0_0
  6
CONTINUOUS
 62
    5
 10
258.84051799999997
 20
63.098272999999999
 11
258.84051799999997
 21
62.098272999999999
  0
CIRCLE
  8
_0-0_0
  6
CONTINUOUS
 62
    5
 10
258.84051799999997
 20
63.098272999999999
 40
0.5
  0
CIRCLE
  8
_0-0_0
  6
CONTINUOUS
 62
    5
 10
258.84051799999997
 20
63.098272999999999
 40
0.25
  0
TEXT
  8
_0-0_0
 62
    7
 10
257.85376000000002
 20
65.923873999999998
 40
3.2200000000000002
 41
0.6055899999999998
 50
-90
  1
3
  0
ENDBLK
  0
BLOCK
  2
-064-BLKF0071
 70
   64
 10
0
 20
0
 30
0
  0
TEXT
  8
_0-0_0
 62
    7
 10
234.53012100000001
 20
73.381195000000005
 40
3.2200000000000002
 41
0.6773639999999998
 50
0
  1
横ル-ズ穴9Ｘ40
  0
LINE
  8
_0-0_0
  6
CONTINUOUS
 62
    5
 10
266.62703199999999
 20
62.486778999999999
 11
255.48607200000001
 21
72.381197999999998
  0
LINE
  8
_0-0_0
  6
CONTINUOUS
 62
    5
 10
266.62703199999999
 20
62.486778999999999
 11
264.383939
 21
64.478897000000003
  0
LINE
  8
_0-0_0
  6
CONTINUOUS
 62
    5
 10
266.62703199999999
 20
62.486778999999999
 11
263.944772
 21
63.830463000000002
  0
LINE
  8
_0-0_0
  6
CONTINUOUS
 62
    5
 10
266.62703199999999
 20
62.486778999999999
 11
264.97596800000002
 21
64.991573000000002
  0
LINE
  8
_0-0_0
  6
CONTINUOUS
 62
    5
 10
255.48607200000001
 20
72.381197999999998
 11
233.530113
 21
72.381197999999998
  0
ENDBLK
  0
BLOCK
  2
-065-BLKF0072
 70
   64
 10
0
 20
0
 30
0
  0
LINE
  8
_0-0_0
  6
CONTINUOUS
 62
    3
 10
282.43887599999999
 20
61.598274000000004
 11
280.31387699999999
 21
61.598274000000004
  0
LINE
  8
_0-0_0
  6
CONTINUOUS
 62
    3
 10
290.43887599999999
 20
61.598274000000004
 11
263.43887699999999
 21
61.598274000000004
  0
LINE
  8
_0-0_0
  6
CONTINUOUS
 62
    3
 10
290.43887599999999
 20
63.098272999999999
 11
263.43887699999999
 21
63.098272999999999
  0
LINE
  8
_0-0_0
  6
CONTINUOUS
 62
    3
 10
263.43887699999999
 20
63.098272999999999
 11
263.43887699999999
 21
61.598274000000004
  0
LINE
  8
_0-0_0
  6
CONTINUOUS
 62
    3
 10
263.43887699999999
 20
62.598272999999999
 11
263.43887699999999
 21
61.598274000000004
  0
LINE
  8
_0-0_0
  6
PHANTOM
 62
    7
 10
275.93887699999999
 20
63.098272999999999
 11
275.93887699999999
 21
61.598274000000004
  0
LINE
  8
_0-0_0
  6
PHANTOM
 62
    7
 10
275.43887599999999
 20
63.098272999999999
 11
275.43887599999999
 21
61.598274000000004
  0
LINE
  8
_0-0_0
  6
PHANTOM
 62
    7
 10
274.93887599999999
 20
63.098272999999999
 11
274.93887599999999
 21
61.598274000000004
  0
LINE
  8
_0-0_0
  6
PHANTOM
 62
    7
 10
274.43887599999999
 20
63.098272999999999
 11
274.43887599999999
 21
61.598274000000004
  0
LINE
  8
_0-0_0
  6
PHANTOM
 62
    7
 10
273.93887699999999
 20
63.098272999999999
 11
273.93887699999999
 21
61.598274000000004
  0
LINE
  8
_0-0_0
  6
PHANTOM
 62
    7
 10
273.43887699999999
 20
63.098272999999999
 11
273.43887699999999
 21
61.598274000000004
  0
LINE
  8
_0-0_0
  6
PHANTOM
 62
    7
 10
272.93887599999999
 20
63.098272999999999
 11
272.93887599999999
 21
61.598274000000004
  0
LINE
  8
_0-0_0
  6
PHANTOM
 62
    7
 10
272.43887599999999
 20
63.098272999999999
 11
272.43887599999999
 21
61.598274000000004
  0
LINE
  8
_0-0_0
  6
PHANTOM
 62
    7
 10
271.93887599999999
 20
63.098272999999999
 11
271.93887599999999
 21
61.598274000000004
  0
LINE
  8
_0-0_0
  6
PHANTOM
 62
    7
 10
271.43887699999999
 20
63.098272999999999
 11
271.43887699999999
 21
61.598274000000004
  0
LINE
  8
_0-0_0
  6
PHANTOM
 62
    7
 10
270.93887699999999
 20
63.098272999999999
 11
270.93887699999999
 21
61.598274000000004
  0
LINE
  8
_0-0_0
  6
PHANTOM
 62
    7
 10
270.43887599999999
 20
63.098272999999999
 11
270.43887599999999
 21
61.598274000000004
  0
LINE
  8
_0-0_0
  6
PHANTOM
 62
    7
 10
269.93887599999999
 20
63.098272999999999
 11
269.93887599999999
 21
61.598274000000004
  0
LINE
  8
_0-0_0
  6
PHANTOM
 62
    7
 10
269.43887599999999
 20
63.098272999999999
 11
269.43887599999999
 21
61.598274000000004
  0
LINE
  8
_0-0_0
  6
PHANTOM
 62
    7
 10
268.93887699999999
 20
63.098272999999999
 11
268.93887699999999
 21
61.598274000000004
  0
LINE
  8
_0-0_0
  6
PHANTOM
 62
    7
 10
268.43887699999999
 20
63.098272999999999
 11
268.43887699999999
 21
61.598274000000004
  0
LINE
  8
_0-0_0
  6
PHANTOM
 62
    7
 10
267.93887599999999
 20
63.098272999999999
 11
267.93887599999999
 21
61.598274000000004
  0
LINE
  8
_0-0_0
  6
PHANTOM
 62
    7
 10
267.43887599999999
 20
63.098272999999999
 11
267.43887599999999
 21
61.598274000000004
  0
LINE
  8
_0-0_0
  6
PHANTOM
 62
    7
 10
266.93887599999999
 20
63.098272999999999
 11
266.93887599999999
 21
61.598274000000004
  0
LINE
  8
_0-0_0
  6
PHANTOM
 62
    7
 10
266.43887699999999
 20
63.098272999999999
 11
266.43887699999999
 21
61.598274000000004
  0
LINE
  8
_0-0_0
  6
PHANTOM
 62
    7
 10
265.93887699999999
 20
63.098272999999999
 11
265.93887699999999
 21
61.598274000000004
  0
LINE
  8
_0-0_0
  6
PHANTOM
 62
    7
 10
276.53887600000002
 20
63.098272999999999
 11
276.53887600000002
 21
61.598274000000004
  0
LINE
  8
_0-0_0
  6
PHANTOM
 62
    7
 10
276.43887699999999
 20
63.098272999999999
 11
276.43887699999999
 21
61.598274000000004
  0
LINE
  8
_0-0_0
  6
PHANTOM
 62
    7
 10
276.93887599999999
 20
63.098272999999999
 11
276.93887599999999
 21
61.598274000000004
  0
LINE
  8
_0-0_0
  6
PHANTOM
 62
    7
 10
277.43887599999999
 20
63.098272999999999
 11
277.43887599999999
 21
61.598274000000004
  0
LINE
  8
_0-0_0
  6
PHANTOM
 62
    7
 10
277.93887599999999
 20
63.098272999999999
 11
277.93887599999999
 21
61.598274000000004
  0
LINE
  8
_0-0_0
  6
PHANTOM
 62
    7
 10
278.43887699999999
 20
63.098272999999999
 11
278.43887699999999
 21
61.598274000000004
  0
LINE
  8
_0-0_0
  6
PHANTOM
 62
    7
 10
278.93887699999999
 20
63.098272999999999
 11
278.93887699999999
 21
61.598274000000004
  0
LINE
  8
_0-0_0
  6
PHANTOM
 62
    7
 10
279.43887599999999
 20
63.098272999999999
 11
279.43887599999999
 21
61.598274000000004
  0
LINE
  8
_0-0_0
  6
PHANTOM
 62
    7
 10
279.93887599999999
 20
63.098272999999999
 11
279.93887599999999
 21
61.598274000000004
  0
LINE
  8
_0-0_0
  6
PHANTOM
 62
    7
 10
280.43887599999999
 20
63.098272999999999
 11
280.43887599999999
 21
61.598274000000004
  0
LINE
  8
_0-0_0
  6
PHANTOM
 62
    7
 10
280.93887699999999
 20
63.098272999999999
 11
280.93887699999999
 21
61.598274000000004
  0
LINE
  8
_0-0_0
  6
PHANTOM
 62
    7
 10
281.43887699999999
 20
63.098272999999999
 11
281.43887699999999
 21
61.598274000000004
  0
LINE
  8
_0-0_0
  6
PHANTOM
 62
    7
 10
281.93887599999999
 20
63.098272999999999
 11
281.93887599999999
 21
61.598274000000004
  0
LINE
  8
_0-0_0
  6
PHANTOM
 62
    7
 10
282.43887599999999
 20
63.098272999999999
 11
282.43887599999999
 21
61.598274000000004
  0
LINE
  8
_0-0_0
  6
PHANTOM
 62
    7
 10
282.93887599999999
 20
63.098272999999999
 11
282.93887599999999
 21
61.598274000000004
  0
LINE
  8
_0-0_0
  6
PHANTOM
 62
    7
 10
283.43887699999999
 20
63.098272999999999
 11
283.43887699999999
 21
61.598274000000004
  0
LINE
  8
_0-0_0
  6
PHANTOM
 62
    7
 10
283.93887699999999
 20
63.098272999999999
 11
283.93887699999999
 21
61.598274000000004
  0
LINE
  8
_0-0_0
  6
PHANTOM
 62
    7
 10
284.43887599999999
 20
63.098272999999999
 11
284.43887599999999
 21
61.598274000000004
  0
LINE
  8
_0-0_0
  6
PHANTOM
 62
    7
 10
284.93887599999999
 20
63.098272999999999
 11
284.93887599999999
 21
61.598274000000004
  0
LINE
  8
_0-0_0
  6
PHANTOM
 62
    7
 10
285.43887599999999
 20
63.098272999999999
 11
285.43887599999999
 21
61.598274000000004
  0
LINE
  8
_0-0_0
  6
PHANTOM
 62
    7
 10
285.93887699999999
 20
63.098272999999999
 11
285.93887699999999
 21
61.598274000000004
  0
ARC
  8
_0-0_0
  6
CONTINUOUS
 62
    3
 10
290.43887599999999
 20
61.098274000000004
 40
0.5
 50
0
 51
90
  0
ARC
  8
_0-0_0
  6
CONTINUOUS
 62
    3
 10
290.43887599999999
 20
61.098274000000004
 40
2
 50
0
 51
90
  0
LINE
  8
_0-0_0
  6
CONTINUOUS
 62
    3
 10
290.93887699999999
 20
61.098274000000004
 11
290.93887699999999
 21
47.098274000000004
  0
LINE
  8
_0-0_0
  6
CENTER
 62
    7
 10
292.43887599999999
 20
59.598274000000004
 11
290.93887699999999
 21
59.598274000000004
  0
LINE
  8
_0-0_0
  6
CENTER
 62
    7
 10
292.43887599999999
 20
49.598274000000004
 11
290.93887699999999
 21
49.598274000000004
  0
LINE
  8
_0-0_0
  6
CENTER
 62
    7
 10
292.43887599999999
 20
59.098274000000004
 11
290.93887699999999
 21
59.098274000000004
  0
LINE
  8
_0-0_0
  6
CENTER
 62
    7
 10
292.43887599999999
 20
58.598274000000004
 11
290.93887699999999
 21
58.598274000000004
  0
LINE
  8
_0-0_0
  6
CENTER
 62
    7
 10
292.43887599999999
 20
58.098272999999999
 11
290.93887699999999
 21
58.098272999999999
  0
LINE
  8
_0-0_0
  6
CENTER
 62
    7
 10
292.43887599999999
 20
57.598272999999999
 11
290.93887699999999
 21
57.598272999999999
  0
LINE
  8
_0-0_0
  6
CENTER
 62
    7
 10
292.43887599999999
 20
57.098274000000004
 11
290.93887699999999
 21
57.098274000000004
  0
LINE
  8
_0-0_0
  6
CENTER
 62
    7
 10
292.43887599999999
 20
56.598274000000004
 11
290.93887699999999
 21
56.598274000000004
  0
LINE
  8
_0-0_0
  6
CENTER
 62
    7
 10
292.43887599999999
 20
56.098274000000004
 11
290.93887699999999
 21
56.098274000000004
  0
LINE
  8
_0-0_0
  6
CENTER
 62
    7
 10
292.43887599999999
 20
55.598272999999999
 11
290.93887699999999
 21
55.598272999999999
  0
LINE
  8
_0-0_0
  6
CENTER
 62
    7
 10
292.43887599999999
 20
55.098272999999999
 11
290.93887699999999
 21
55.098272999999999
  0
LINE
  8
_0-0_0
  6
CENTER
 62
    7
 10
292.43887599999999
 20
54.598274000000004
 11
290.93887699999999
 21
54.598274000000004
  0
LINE
  8
_0-0_0
  6
CENTER
 62
    7
 10
292.43887599999999
 20
54.098274000000004
 11
290.93887699999999
 21
54.098274000000004
  0
LINE
  8
_0-0_0
  6
CENTER
 62
    7
 10
292.43887599999999
 20
53.598274000000004
 11
290.93887699999999
 21
53.598274000000004
  0
LINE
  8
_0-0_0
  6
CENTER
 62
    7
 10
292.43887599999999
 20
53.098272999999999
 11
290.93887699999999
 21
53.098272999999999
  0
LINE
  8
_0-0_0
  6
CENTER
 62
    7
 10
292.43887599999999
 20
52.598272999999999
 11
290.93887699999999
 21
52.598272999999999
  0
LINE
  8
_0-0_0
  6
CENTER
 62
    7
 10
292.43887599999999
 20
52.098274000000004
 11
290.93887699999999
 21
52.098274000000004
  0
LINE
  8
_0-0_0
  6
CENTER
 62
    7
 10
292.43887599999999
 20
51.598274000000004
 11
290.93887699999999
 21
51.598274000000004
  0
LINE
  8
_0-0_0
  6
CENTER
 62
    7
 10
292.43887599999999
 20
51.098274000000004
 11
290.93887699999999
 21
51.098274000000004
  0
LINE
  8
_0-0_0
  6
CENTER
 62
    7
 10
292.43887599999999
 20
50.598272999999999
 11
290.93887699999999
 21
50.598272999999999
  0
LINE
  8
_0-0_0
  6
CENTER
 62
    7
 10
292.43887599999999
 20
50.098272999999999
 11
290.93887699999999
 21
50.098272999999999
  0
LINE
  8
_0-0_0
  6
CENTER
 62
    7
 10
292.43887599999999
 20
49.598274000000004
 11
290.93887699999999
 21
49.598274000000004
  0
LINE
  8
_0-0_0
  6
CONTINUOUS
 62
    3
 10
292.43887599999999
 20
47.098274000000004
 11
290.93887699999999
 21
47.098274000000004
  0
LINE
  8
_0-0_0
  6
CONTINUOUS
 62
    3
 10
292.43887599999999
 20
61.098274000000004
 11
292.43887599999999
 21
47.098274000000004
  0
ENDBLK
  0
BLOCK
  2
-066-BLKF0073
 70
   64
 10
0
 20
0
 30
0
  0
LINE
  8
_0-0_0
  6
CONTINUOUS
 62
    3
 10
274.06387599999999
 20
61.598274000000004
 11
274.06387599999999
 21
60.998274000000002
  0
LINE
  8
_0-0_0
  6
CONTINUOUS
 62
    3
 10
274.06387599999999
 20
61.598274000000004
 11
281.43887599999999
 21
61.598274000000004
  0
LINE
  8
_0-0_0
  6
CONTINUOUS
 62
    3
 10
282.43887599999999
 20
60.598272999999999
 11
282.43887599999999
 21
60.139637999999998
  0
LINE
  8
_0-0_0
  6
CONTINUOUS
 62
    3
 10
281.43887599999999
 20
53.598272999999999
 11
274.06387599999999
 21
53.598272999999999
  0
LINE
  8
_0-0_0
  6
CONTINUOUS
 62
    3
 10
274.06387599999999
 20
53.598272999999999
 11
274.06387599999999
 21
54.198273999999998
  0
POINT
  8
_0-0_0
 62
    7
 10
282.43887599999999
 20
57.598272999999999
  0
LINE
  8
_0-0_0
  6
CONTINUOUS
 62
    3
 10
281.68887599999999
 20
59.423273000000002
 11
281.68887599999999
 21
57.748274000000002
  0
LINE
  8
_0-0_0
  6
CONTINUOUS
 62
    3
 10
280.93887599999999
 20
59.860320000000002
 11
280.93887599999999
 21
55.336227000000001
  0
LINE
  8
_0-0_0
  6
CONTINUOUS
 62
    3
 10
281.68887599999999
 20
59.423273000000002
 11
282.185383
 21
59.704627000000002
  0
LINE
  8
_0-0_0
  6
CONTINUOUS
 62
    3
 10
281.68887599999999
 20
55.773273000000003
 11
282.185383
 21
55.49192
  0
LINE
  8
_0-0_0
  6
CONTINUOUS
 62
    3
 10
275.18887599999999
 20
60.998274000000002
 11
274.06387599999999
 21
60.998274000000002
  0
LINE
  8
_0-0_0
  6
CONTINUOUS
 62
    3
 10
275.18887599999999
 20
54.198273999999998
 11
274.06387599999999
 21
54.198273999999998
  0
LINE
  8
_0-0_0
  6
CONTINUOUS
 62
    3
 10
275.18887599999999
 20
60.998274000000002
 11
275.18887599999999
 21
59.648273000000003
  0
LINE
  8
_0-0_0
  6
CONTINUOUS
 62
    3
 10
275.18887599999999
 20
54.198273999999998
 11
275.18887599999999
 21
55.548273000000002
  0
LINE
  8
_0-0_0
  6
CONTINUOUS
 62
    3
 10
275.93887599999999
 20
60.848272999999999
 11
275.93887599999999
 21
58.689145000000003
  0
LINE
  8
_0-0_0
  6
CONTINUOUS
 62
    3
 10
275.93887599999999
 20
54.348272999999999
 11
275.93887599999999
 21
56.507401999999999
  0
LINE
  8
_0-0_0
  6
CONTINUOUS
 62
    3
 10
275.93887599999999
 20
60.848272999999999
 11
281.43887599999999
 21
60.848272999999999
  0
LINE
  8
_0-0_0
  6
CONTINUOUS
 62
    3
 10
275.93887599999999
 20
54.348272999999999
 11
281.43887599999999
 21
54.348272999999999
  0
LINE
  8
_0-0_0
  6
CONTINUOUS
 62
    3
 10
280.93887599999999
 20
59.860320000000002
 11
281.56213000000002
 21
60.213496999999997
  0
LINE
  8
_0-0_0
  6
CONTINUOUS
 62
    3
 10
280.93887599999999
 20
55.336227000000001
 11
281.56213000000002
 21
54.983049999999999
  0
LINE
  8
_0-0_0
  6
CONTINUOUS
 62
    3
 10
281.68887599999999
 20
60.598272999999999
 11
281.68887599999999
 21
60.431002999999997
  0
LINE
  8
_0-0_0
  6
CONTINUOUS
 62
    3
 10
281.68887599999999
 20
54.765543999999998
 11
281.68887599999999
 21
54.598272999999999
  0
LINE
  8
_0-0_0
  6
CONTINUOUS
 62
    3
 10
282.43887599999999
 20
55.056908999999997
 11
282.43887599999999
 21
54.598272999999999
  0
ARC
  8
_0-0_0
  6
CONTINUOUS
 62
    3
 10
281.43887599999999
 20
60.598272999999999
 40
1
 50
0
 51
90
  0
ARC
  8
_0-0_0
  6
CONTINUOUS
 62
    3
 10
281.43887599999999
 20
54.598272999999999
 40
1
 50
270
 51
0
  0
ARC
  8
_0-0_0
  6
CONTINUOUS
 62
    3
 10
281.93887699999999
 20
55.056908999999997
 40
0.5
 50
0
 51
60.461218000000002
  0
ARC
  8
_0-0_0
  6
CONTINUOUS
 62
    3
 10
281.93887699999999
 20
60.139637999999998
 40
0.5
 50
299.53878200000003
 51
0
  0
ARC
  8
_0-0_0
  6
CONTINUOUS
 62
    3
 10
281.43887599999999
 20
60.598272999999999
 40
0.25
 50
0
 51
90
  0
ARC
  8
_0-0_0
  6
CONTINUOUS
 62
    3
 10
281.43887599999999
 20
60.431002999999997
 40
0.25
 50
299.53878200000003
 51
0
  0
ARC
  8
_0-0_0
  6
CONTINUOUS
 62
    3
 10
281.43887599999999
 20
54.765543999999998
 40
0.25
 50
0
 51
60.461218000000002
  0
ARC
  8
_0-0_0
  6
CONTINUOUS
 62
    3
 10
281.43887599999999
 20
54.598272999999999
 40
0.25
 50
270
 51
0
  0
LINE
  8
_0-0_0
  6
CONTINUOUS
 62
    3
 10
262.93887599999999
 20
61.598274000000004
 11
269.81387599999999
 21
61.598274000000004
  0
LINE
  8
_0-0_0
  6
CONTINUOUS
 62
    3
 10
269.81387599999999
 20
61.598274000000004
 11
269.81387599999999
 21
60.998274000000002
  0
LINE
  8
_0-0_0
  6
CONTINUOUS
 62
    3
 10
269.81387599999999
 20
60.998274000000002
 11
268.68887599999999
 21
60.998274000000002
  0
LINE
  8
_0-0_0
  6
CONTINUOUS
 62
    3
 10
269.81387599999999
 20
54.198273999999998
 11
269.81387599999999
 21
53.598272999999999
  0
LINE
  8
_0-0_0
  6
CONTINUOUS
 62
    3
 10
269.81387599999999
 20
53.598272999999999
 11
262.93887599999999
 21
53.598272999999999
  0
LINE
  8
_0-0_0
  6
CONTINUOUS
 62
    3
 10
269.81387599999999
 20
54.198273999999998
 11
268.68887599999999
 21
54.198273999999998
  0
LINE
  8
_0-0_0
  6
CONTINUOUS
 62
    3
 10
262.43887599999999
 20
61.098272999999999
 11
262.43887599999999
 21
60.498272999999998
  0
LINE
  8
_0-0_0
  6
CONTINUOUS
 62
    3
 10
262.43887599999999
 20
54.098274000000004
 11
262.43887599999999
 21
54.698273999999998
  0
LINE
  8
_0-0_0
  6
CONTINUOUS
 62
    3
 10
263.18887699999999
 20
60.848272999999999
 11
263.18887699999999
 21
60.498272999999998
  0
LINE
  8
_0-0_0
  6
CONTINUOUS
 62
    3
 10
263.18887699999999
 20
54.348272999999999
 11
263.18887699999999
 21
54.698273999999998
  0
LINE
  8
_0-0_0
  6
CONTINUOUS
 62
    3
 10
268.68887599999999
 20
60.998274000000002
 11
268.68887599999999
 21
59.748274000000002
  0
LINE
  8
_0-0_0
  6
CONTINUOUS
 62
    3
 10
268.68887599999999
 20
54.198273999999998
 11
268.68887599999999
 21
55.448273999999998
  0
LINE
  8
_0-0_0
  6
CONTINUOUS
 62
    3
 10
267.93887599999999
 20
60.848272999999999
 11
267.93887599999999
 21
59.148274000000001
  0
LINE
  8
_0-0_0
  6
CONTINUOUS
 62
    3
 10
267.93887599999999
 20
54.348272999999999
 11
267.93887599999999
 21
56.048273999999999
  0
LINE
  8
_0-0_0
  6
CONTINUOUS
 62
    3
 10
263.18887699999999
 20
60.498272999999998
 11
262.43887599999999
 21
60.498272999999998
  0
LINE
  8
_0-0_0
  6
CONTINUOUS
 62
    3
 10
263.18887699999999
 20
54.698273999999998
 11
262.43887599999999
 21
54.698273999999998
  0
LINE
  8
_0-0_0
  6
CONTINUOUS
 62
    3
 10
267.93887599999999
 20
60.848272999999999
 11
263.18887699999999
 21
60.848272999999999
  0
LINE
  8
_0-0_0
  6
CONTINUOUS
 62
    3
 10
267.93887599999999
 20
54.348272999999999
 11
263.18887699999999
 21
54.348272999999999
  0
ARC
  8
_0-0_0
  6
CONTINUOUS
 62
    3
 10
262.93887599999999
 20
61.098272999999999
 40
0.5
 50
90
 51
180
  0
ARC
  8
_0-0_0
  6
CONTINUOUS
 62
    3
 10
262.93887599999999
 20
54.098274000000004
 40
0.5
 50
180
 51
270
  0
LINE
  8
_0-0_0
  6
CONTINUOUS
 62
    3
 10
273.93887599999999
 20
58.898273000000003
 11
273.93887599999999
 21
56.298273000000002
  0
LINE
  8
_0-0_0
  6
CONTINUOUS
 62
    3
 10
273.93887599999999
 20
58.898273000000003
 11
270.53887700000001
 21
58.898273000000003
  0
LINE
  8
_0-0_0
  6
CONTINUOUS
 62
    3
 10
273.93887599999999
 20
56.298273000000002
 11
270.53887700000001
 21
56.298273000000002
  0
LINE
  8
_0-0_0
  6
CONTINUOUS
 62
    3
 10
267.93887599999999
 20
59.148274000000001
 11
270.33937300000002
 21
58.908223999999997
  0
LINE
  8
_0-0_0
  6
CONTINUOUS
 62
    3
 10
268.68887599999999
 20
59.748274000000002
 11
270.43887599999999
 21
59.648273000000003
  0
LINE
  8
_0-0_0
  6
CONTINUOUS
 62
    3
 10
270.43887699999999
 20
55.548273000000002
 11
268.68887599999999
 21
55.448273999999998
  0
LINE
  8
_0-0_0
  6
CONTINUOUS
 62
    3
 10
275.18887599999999
 20
59.648273000000003
 11
270.43887599999999
 21
59.648273000000003
  0
LINE
  8
_0-0_0
  6
CONTINUOUS
 62
    3
 10
275.18887599999999
 20
55.548273000000002
 11
270.43887699999999
 21
55.548273000000002
  0
POINT
  8
_0-0_0
 62
    7
 10
282.43887599999999
 20
59.848272999999999
  0
POINT
  8
_0-0_0
 62
    7
 10
282.43887599999999
 20
55.348274000000004
  0
ARC
  8
_0-0_0
  6
CONTINUOUS
 62
    3
 10
270.43887599999999
 20
58.898273000000003
 40
0.1
 50
174.28940700000001
 51
0
  0
ARC
  8
_0-0_0
  6
CONTINUOUS
 62
    3
 10
270.43887599999999
 20
56.298273000000002
 40
0.1
 50
0
 51
185.71059299999999
  0
LINE
  8
_0-0_0
  6
CONTINUOUS
 62
    3
 10
270.33937300000002
 20
56.288322999999998
 11
267.93887599999999
 21
56.048273999999999
  0
ARC
  8
_0-0_0
  6
CONTINUOUS
 62
    3
 10
275.43887599999999
 20
57.598272999999999
 40
1.2
 50
294.62431800000002
 51
315.52248800000001
  0
ARC
  8
_0-0_0
  6
CONTINUOUS
 62
    3
 10
276.12386199999997
 20
56.925669999999997
 40
0.2399999999999999
 50
315.52248800000001
 51
60
  0
ARC
  8
_0-0_0
  6
CONTINUOUS
 62
    3
 10
276.12386199999997
 20
56.925669999999997
 40
0.2399999999999999
 50
59.999999999999993
 51
135.52248799999998
  0
ARC
  8
_0-0_0
  6
CONTINUOUS
 62
    3
 10
275.43887599999999
 20
57.598272999999999
 40
0.7199999999999997
 50
44.477511999999997
 51
315.52248800000001
  0
ARC
  8
_0-0_0
  6
CONTINUOUS
 62
    3
 10
276.12386199999997
 20
58.270876999999999
 40
0.2399999999999999
 50
300
 51
44.47751199999999
  0
ARC
  8
_0-0_0
  6
CONTINUOUS
 62
    3
 10
276.12386199999997
 20
58.270876999999999
 40
0.2399999999999999
 50
224.47751200000002
 51
300
  0
ARC
  8
_0-0_0
  6
CONTINUOUS
 62
    3
 10
275.43887599999999
 20
57.598272999999999
 40
1.2
 50
44.477511999999997
 51
65.375681999999998
  0
LINE
  8
_0-0_0
  6
CONTINUOUS
 62
    3
 10
281.68887599999999
 20
57.448273
 11
281.68887599999999
 21
55.773273000000003
  0
LINE
  8
_0-0_0
  6
CONTINUOUS
 62
    3
 10
281.53887600000002
 20
57.598272999999999
 11
281.68887599999999
 21
57.448273
  0
LINE
  8
_0-0_0
  6
CONTINUOUS
 62
    3
 10
281.68887599999999
 20
57.748274000000002
 11
281.53887600000002
 21
57.598272999999999
  0
ENDBLK
  0
BLOCK
  2
-067-BLKF0074
 70
   64
 10
0
 20
0
 30
0
  0
LINE
  8
_0-0_0
  6
CONTINUOUS
 62
    7
 10
269.896322
 20
67.836995999999999
 11
269.896322
 21
68.462126999999995
  0
LINE
  8
_0-0_0
  6
CONTINUOUS
 62
    7
 10
270.30483299999997
 20
68.870637000000002
 11
273.57291800000002
 21
68.870637000000002
  0
LINE
  8
_0-0_0
  6
CONTINUOUS
 62
    7
 10
273.98142899999999
 20
68.462126999999995
 11
273.98142899999999
 21
67.836995999999999
  0
LINE
  8
_0-0_0
  6
CONTINUOUS
 62
    7
 10
270.30483299999997
 20
67.836995999999999
 11
270.30483299999997
 21
68.870637000000002
  0
LINE
  8
_0-0_0
  6
CONTINUOUS
 62
    7
 10
273.57291800000002
 20
68.870637000000002
 11
273.57291800000002
 21
67.836995999999999
  0
LINE
  8
_0-0_0
  6
CONTINUOUS
 62
    7
 10
269.896322
 20
68.462126999999995
 11
270.30483299999997
 21
68.870637000000002
  0
LINE
  8
_0-0_0
  6
CONTINUOUS
 62
    7
 10
273.98142899999999
 20
68.462126999999995
 11
273.57291800000002
 21
68.870637000000002
  0
LINE
  8
_0-0_0
  6
CONTINUOUS
 62
    7
 10
269.896322
 20
68.462126999999995
 11
273.98142899999999
 21
68.462126999999995
  0
ARC
  8
_0-0_0
  6
CONTINUOUS
 62
    7
 10
275.00270499999999
 20
66.466395000000006
 40
1.370601
 50
41.829712000000001
 51
138.17027299999998
  0
ARC
  8
_0-0_0
  6
CONTINUOUS
 62
    7
 10
271.93887599999999
 20
63.039368000000003
 40
4.7976270000000003
 50
64.802338000000006
 51
115.19766200000002
  0
ARC
  8
_0-0_0
  6
CONTINUOUS
 62
    7
 10
268.875046
 20
66.466392999999997
 40
1.3706020000000001
 50
41.829726999999998
 51
138.17027300000001
  0
LINE
  8
_0-0_0
  6
CONTINUOUS
 62
    7
 10
276.02398199999999
 20
67.380475000000004
 11
276.02398199999999
 21
63.969763
  0
LINE
  8
_0-0_0
  6
CONTINUOUS
 62
    7
 10
267.853769
 20
63.969763
 11
267.853769
 21
67.380475000000004
  0
LINE
  8
_0-0_0
  6
CONTINUOUS
 62
    7
 10
275.00270499999999
 20
67.836995999999999
 11
268.875046
 21
67.836995999999999
  0
LINE
  8
_0-0_0
  6
CONTINUOUS
 62
    7
 10
269.896322
 20
67.380475000000004
 11
269.896322
 21
64.841251
  0
LINE
  8
_0-0_0
  6
CONTINUOUS
 62
    7
 10
273.98142899999999
 20
67.380475000000004
 11
273.98142899999999
 21
64.841251
  0
LINE
  8
_0-0_0
  6
CONTINUOUS
 62
    7
 10
276.56866300000002
 20
63.969763
 11
267.30908799999997
 21
63.969763
  0
LINE
  8
_0-0_0
  6
CONTINUOUS
 62
    7
 10
276.56866300000002
 20
63.969763
 11
276.56866300000002
 21
63.098272999999999
  0
LINE
  8
_0-0_0
  6
CONTINUOUS
 62
    7
 10
267.30908799999997
 20
63.969763
 11
267.30908799999997
 21
63.098272999999999
  0
LINE
  8
_0-0_0
  6
CONTINUOUS
 62
    7
 10
267.853769
 20
64.841251
 11
276.02398199999999
 21
64.841251
  0
LINE
  8
_0-0_0
  6
CONTINUOUS
 62
    7
 10
272.14183800000001
 20
63.969763
 11
271.280934
 21
64.841251
  0
LINE
  8
_0-0_0
  6
CONTINUOUS
 62
    7
 10
271.89001200000001
 20
63.969763
 11
271.02910900000001
 21
64.841251
  0
LINE
  8
_0-0_0
  6
CENTER
 62
    7
 10
271.93887599999999
 20
55.967106000000001
 11
271.93887599999999
 21
70.949848000000003
  0
ENDBLK
  0
BLOCK
  2
-068-_D75
 70
   64
 10
0
 20
0
 30
0
  0
TEXT
  8
_0-0_0
 62
    7
 10
273.688873
 20
74.631714000000002
 40
3.2000000000000002
 41
0.703125
 50
0
  1
40
  0
LINE
  8
_0-0_0
  6
CONTINUOUS
 62
    5
 10
285.93887699999999
 20
65.098273000000006
 11
285.93887699999999
 21
74.631711999999993
  0
LINE
  8
_0-0_0
  6
CONTINUOUS
 62
    5
 10
265.93887699999999
 20
65.098273000000006
 11
265.93887699999999
 21
74.631711999999993
  0
LINE
  8
_0-0_0
  6
CONTINUOUS
 62
    5
 10
285.93887699999999
 20
73.631711999999993
 11
265.93887699999999
 21
73.631711999999993
  0
INSERT
  2
-000-EDTIP_BLACKDOT_S
  8
_0-0_0
 10
285.93887699999999
 20
73.631711999999993
 41
1
 42
1
 50
0
  0
INSERT
  2
-001-EDTIP_BLACKDOT_E
  8
_0-0_0
 10
265.93887699999999
 20
73.631711999999993
 41
1
 42
1
 50
180
  0
ENDBLK
  0
BLOCK
  2
-069-_D76
 70
   64
 10
0
 20
0
 30
0
  0
TEXT
  8
_0-0_0
 62
    7
 10
260.688873
 20
74.631714000000002
 40
3.2000000000000002
 41
0.703125
 50
0
  1
5
  0
LINE
  8
_0-0_0
  6
CONTINUOUS
 62
    5
 10
263.43887699999999
 20
65.098273000000006
 11
263.43887699999999
 21
74.631711999999993
  0
LINE
  8
_0-0_0
  6
CONTINUOUS
 62
    5
 10
265.93887699999999
 20
73.631711999999993
 11
263.43887699999999
 21
73.631711999999993
  0
INSERT
  2
-001-EDTIP_BLACKDOT_E
  8
_0-0_0
 10
263.43887699999999
 20
73.631711999999993
 41
1
 42
1
 50
180
  0
LINE
  8
_0-0_0
  6
CONTINUOUS
 62
    5
 10
263.43887699999999
 20
73.631711999999993
 11
260.68887699999999
 21
73.631711999999993
  0
INSERT
  2
-000-EDTIP_BLACKDOT_S
  8
_0-0_0
 10
263.43887699999999
 20
73.631711999999993
 41
1
 42
1
 50
0
  0
ENDBLK
  0
BLOCK
  2
-070-BLKF0077
 70
   64
 10
0
 20
0
 30
0
  0
LINE
  8
_0-0_0
  6
CONTINUOUS
 62
    7
 10
275.12260400000002
 20
60.870637000000002
 11
268.75514800000002
 21
60.870637000000002
  0
LINE
  8
_0-0_0
  6
CONTINUOUS
 62
    7
 10
273.93887599999999
 20
60.870637000000002
 11
273.93887599999999
 21
63.098272999999999
  0
LINE
  8
_0-0_0
  6
CONTINUOUS
 62
    7
 10
269.93887599999999
 20
60.870637000000002
 11
269.93887599999999
 21
63.098272999999999
  0
LINE
  8
_0-0_0
  6
CONTINUOUS
 62
    7
 10
268.75514800000002
 20
59.770637000000001
 11
268.75514800000002
 21
60.870637000000002
  0
LINE
  8
_0-0_0
  6
CONTINUOUS
 62
    7
 10
275.12260400000002
 20
59.770637000000001
 11
268.75514800000002
 21
59.770637000000001
  0
LINE
  8
_0-0_0
  6
CONTINUOUS
 62
    7
 10
275.12260400000002
 20
59.770637000000001
 11
275.12260400000002
 21
60.870637000000002
  0
ENDBLK
  0
BLOCK
  2
-071-_D78
 70
   64
 10
0
 20
0
 30
0
  0
TEXT
  8
_0-0_0
 62
    7
 10
275.688873
 20
86.673034999999999
 40
3.2000000000000002
 41
0.703125
 50
0
  1
58
  0
LINE
  8
_0-0_0
  6
CONTINUOUS
 62
    5
 10
292.43887599999999
 20
62.098274000000004
 11
292.43887599999999
 21
86.673029
  0
LINE
  8
_0-0_0
  6
CONTINUOUS
 62
    5
 10
263.43887699999999
 20
75.631711999999993
 11
263.43887699999999
 21
86.673029
  0
LINE
  8
_0-0_0
  6
CONTINUOUS
 62
    5
 10
292.43887599999999
 20
85.673029
 11
263.43887699999999
 21
85.673029
  0
INSERT
  2
-000-EDTIP_BLACKDOT_S
  8
_0-0_0
 10
292.43887599999999
 20
85.673029
 41
1
 42
1
 50
0
  0
INSERT
  2
-001-EDTIP_BLACKDOT_E
  8
_0-0_0
 10
263.43887699999999
 20
85.673029
 41
1
 42
1
 50
180
  0
ENDBLK
  0
BLOCK
  2
-072-_D79
 70
   64
 10
0
 20
0
 30
0
  0
TEXT
  8
_0-0_0
 62
    7
 10
265.438873
 20
80.261252999999996
 40
3.2000000000000002
 41
0.703125
 50
0
  1
17
  0
LINE
  8
_0-0_0
  6
CONTINUOUS
 62
    5
 10
263.43887699999999
 20
75.631711999999993
 11
263.43887699999999
 21
80.261251000000001
  0
LINE
  8
_0-0_0
  6
CONTINUOUS
 62
    5
 10
271.93887599999999
 20
79.261251000000001
 11
263.43887699999999
 21
79.261251000000001
  0
INSERT
  2
-000-EDTIP_BLACKDOT_S
  8
_0-0_0
 10
271.93887599999999
 20
79.261251000000001
 41
1
 42
1
 50
0
  0
INSERT
  2
-001-EDTIP_BLACKDOT_E
  8
_0-0_0
 10
263.43887699999999
 20
79.261251000000001
 41
1
 42
1
 50
180
  0
ENDBLK
  0
BLOCK
  2
-073-_D80
 70
   64
 10
0
 20
0
 30
0
  0
TEXT
  8
_0-0_0
 62
    7
 10
279.938873
 20
80.261252999999996
 40
3.2000000000000002
 41
0.703125
 50
0
  1
41
  0
LINE
  8
_0-0_0
  6
CONTINUOUS
 62
    5
 10
271.93887599999999
 20
71.949848000000003
 11
271.93887599999999
 21
80.261251000000001
  0
LINE
  8
_0-0_0
  6
CONTINUOUS
 62
    5
 10
292.43887599999999
 20
79.261251000000001
 11
271.93887599999999
 21
79.261251000000001
  0
INSERT
  2
-000-EDTIP_BLACKDOT_S
  8
_0-0_0
 10
292.43887599999999
 20
79.261251000000001
 41
1
 42
1
 50
0
  0
INSERT
  2
-001-EDTIP_BLACKDOT_E
  8
_0-0_0
 10
271.93887599999999
 20
79.261251000000001
 41
1
 42
1
 50
180
  0
ENDBLK
  0
BLOCK
  2
-074-_D81
 70
   64
 10
0
 20
0
 30
0
  0
TEXT
  8
_0-0_0
 62
    7
 10
285.188873
 20
30.751213
 40
3.2000000000000002
 41
0.703125
 50
0
  1
20
  0
LINE
  8
_0-0_0
  6
CONTINUOUS
 62
    5
 10
282.43887599999999
 20
35.109814
 11
282.43887599999999
 21
28.751213
  0
LINE
  8
_0-0_0
  6
CONTINUOUS
 62
    5
 10
292.43887599999999
 20
29.751213
 11
282.43887599999999
 21
29.751213
  0
INSERT
  2
-000-EDTIP_BLACKDOT_S
  8
_0-0_0
 10
292.43887599999999
 20
29.751213
 41
1
 42
1
 50
0
  0
INSERT
  2
-001-EDTIP_BLACKDOT_E
  8
_0-0_0
 10
282.43887599999999
 20
29.751213
 41
1
 42
1
 50
180
  0
ENDBLK
  0
BLOCK
  2
-075-BLKF0082
 70
   64
 10
0
 20
0
 30
0
  0
TEXT
  8
_0-3_CSLAYER12
 62
    7
 10
192.29499799999999
 20
284.10195900000002
 40
3.2200000000000002
 41
0.6661489999999998
 50
0
  1
開口＝Ｃ
  0
LINE
  8
_0-3_CSLAYER12
  6
CONTINUOUS
 62
    5
 10
214.585003
 20
276.75326999999999
 11
214.585003
 21
284.10195299999998
  0
LINE
  8
_0-3_CSLAYER12
  6
CONTINUOUS
 62
    5
 10
178.585003
 20
268.453239
 11
178.585003
 21
284.10195299999998
  0
LINE
  8
_0-3_CSLAYER12
  6
CONTINUOUS
 62
    5
 10
214.585003
 20
283.10195299999998
 11
178.585003
 21
283.10195299999998
  0
LINE
  8
_0-3_CSLAYER12
  6
CONTINUOUS
 62
    5
 10
214.585003
 20
283.10195299999998
 11
213.585003
 21
283.10195299999998
  0
CIRCLE
  8
_0-3_CSLAYER12
  6
CONTINUOUS
 62
    5
 10
214.585003
 20
283.10195299999998
 40
0.5
  0
CIRCLE
  8
_0-3_CSLAYER12
  6
CONTINUOUS
 62
    5
 10
214.585003
 20
283.10195299999998
 40
0.25
  0
LINE
  8
_0-3_CSLAYER12
  6
CONTINUOUS
 62
    5
 10
178.585003
 20
283.10195299999998
 11
179.585003
 21
283.10195299999998
  0
CIRCLE
  8
_0-3_CSLAYER12
  6
CONTINUOUS
 62
    5
 10
178.585003
 20
283.10195299999998
 40
0.5
  0
CIRCLE
  8
_0-3_CSLAYER12
  6
CONTINUOUS
 62
    5
 10
178.585003
 20
283.10195299999998
 40
0.25
  0
ENDBLK
  0
BLOCK
  2
-076-BLKF0083
 70
   64
 10
0
 20
0
 30
0
  0
TEXT
  8
_0-3_CSLAYER12
 62
    7
 10
195.61000100000001
 20
277.753265
 40
3.2200000000000002
 41
0.6055899999999998
 50
0
  1
Ｗ
  0
LINE
  8
_0-3_CSLAYER12
  6
CONTINUOUS
 62
    5
 10
179.585003
 20
271.35290400000002
 11
179.585003
 21
277.75326999999999
  0
LINE
  8
_0-3_CSLAYER12
  6
CONTINUOUS
 62
    5
 10
213.585003
 20
276.75326999999999
 11
179.585003
 21
276.75326999999999
  0
LINE
  8
_0-3_CSLAYER12
  6
CONTINUOUS
 62
    5
 10
213.585003
 20
276.75326999999999
 11
212.585003
 21
276.75326999999999
  0
CIRCLE
  8
_0-3_CSLAYER12
  6
CONTINUOUS
 62
    5
 10
213.585003
 20
276.75326999999999
 40
0.5
  0
CIRCLE
  8
_0-3_CSLAYER12
  6
CONTINUOUS
 62
    5
 10
213.585003
 20
276.75326999999999
 40
0.25
  0
LINE
  8
_0-3_CSLAYER12
  6
CONTINUOUS
 62
    5
 10
179.585003
 20
276.75326999999999
 11
180.585003
 21
276.75326999999999
  0
CIRCLE
  8
_0-3_CSLAYER12
  6
CONTINUOUS
 62
    5
 10
179.585003
 20
276.75326999999999
 40
0.5
  0
CIRCLE
  8
_0-3_CSLAYER12
  6
CONTINUOUS
 62
    5
 10
179.585003
 20
276.75326999999999
 40
0.25
  0
ENDBLK
  0
BLOCK
  2
-077-BLKF0084
 70
   64
 10
0
 20
0
 30
0
  0
LINE
  8
_0-3_CSLAYER12
  6
CONTINUOUS
 62
    7
 10
216.33192500000001
 20
268.87110999999999
 11
216.18254099999999
 21
268.85753599999998
  0
LINE
  8
_0-3_CSLAYER12
  6
CONTINUOUS
 62
    7
 10
216.33192500000001
 20
268.87110999999999
 11
216.356821
 21
268.59713699999998
  0
LINE
  8
_0-3_CSLAYER12
  6
CONTINUOUS
 62
    7
 10
216.35907399999999
 20
268.59734099999997
 11
215.60989900000001
 21
268.52926400000001
  0
LINE
  8
_0-3_CSLAYER12
  6
CONTINUOUS
 62
    7
 10
215.585003
 20
268.80323900000002
 11
214.585003
 21
268.80323900000002
  0
POINT
  8
_0-3_CSLAYER12
 62
    4
 10
216.20968999999999
 20
268.58376700000002
  0
POINT
  8
_0-3_CSLAYER12
 62
    4
 10
216.060305
 20
268.57019200000002
  0
POINT
  8
_0-3_CSLAYER12
 62
    4
 10
215.910921
 20
268.55661900000001
  0
POINT
  8
_0-3_CSLAYER12
 62
    4
 10
215.76153600000001
 20
268.54304300000001
  0
LINE
  8
_0-3_CSLAYER12
  6
CONTINUOUS
 62
    7
 10
216.058052
 20
268.56998800000002
 11
216.03315599999999
 21
268.84396099999998
  0
LINE
  8
_0-3_CSLAYER12
  6
CONTINUOUS
 62
    7
 10
216.18254099999999
 20
268.85753599999998
 11
216.03768099999999
 21
268.79416600000002
  0
LINE
  8
_0-3_CSLAYER12
  6
CONTINUOUS
 62
    7
 10
215.90866800000001
 20
268.55641300000002
 11
215.88377199999999
 21
268.83038800000003
  0
LINE
  8
_0-3_CSLAYER12
  6
CONTINUOUS
 62
    7
 10
216.03315599999999
 20
268.84396099999998
 11
215.88829699999999
 21
268.78059300000001
  0
LINE
  8
_0-3_CSLAYER12
  6
CONTINUOUS
 62
    7
 10
215.75928300000001
 20
268.54283900000001
 11
215.734387
 21
268.81681200000003
  0
LINE
  8
_0-3_CSLAYER12
  6
CONTINUOUS
 62
    7
 10
215.88377199999999
 20
268.83038800000003
 11
215.738912
 21
268.76701700000001
  0
LINE
  8
_0-3_CSLAYER12
  6
CONTINUOUS
 62
    7
 10
216.18254099999999
 20
268.85753599999998
 11
216.207437
 21
268.58356199999997
  0
LINE
  8
_0-3_CSLAYER12
  6
CONTINUOUS
 62
    7
 10
215.734387
 20
268.81681200000003
 11
215.585003
 21
268.80323900000002
  0
LINE
  8
_0-3_CSLAYER12
  6
CONTINUOUS
 62
    7
 10
216.48500300000001
 20
268.75323800000001
 11
216.48500300000001
 21
268.50323800000001
  0
LINE
  8
_0-3_CSLAYER12
  6
CONTINUOUS
 62
    7
 10
216.48500300000001
 20
268.75323800000001
 11
216.342636
 21
268.72823799999998
  0
LINE
  8
_0-3_CSLAYER12
  6
CONTINUOUS
 62
    7
 10
215.60989900000001
 20
268.52926400000001
 11
215.60989900000001
 21
268.50323800000001
  0
LINE
  8
_0-3_CSLAYER12
  6
CONTINUOUS
 62
    7
 10
216.33192500000001
 20
268.13536699999997
 11
216.18254099999999
 21
268.14893999999998
  0
LINE
  8
_0-3_CSLAYER12
  6
CONTINUOUS
 62
    7
 10
216.33192500000001
 20
268.13536699999997
 11
216.356821
 21
268.40933899999999
  0
LINE
  8
_0-3_CSLAYER12
  6
CONTINUOUS
 62
    7
 10
216.35907399999999
 20
268.40913499999999
 11
215.60989900000001
 21
268.47721200000001
  0
LINE
  8
_0-3_CSLAYER12
  6
CONTINUOUS
 62
    7
 10
215.585003
 20
268.203239
 11
214.585003
 21
268.203239
  0
POINT
  8
_0-3_CSLAYER12
 62
    4
 10
216.20968999999999
 20
268.42271
  0
POINT
  8
_0-3_CSLAYER12
 62
    4
 10
216.060305
 20
268.436284
  0
POINT
  8
_0-3_CSLAYER12
 62
    4
 10
215.910921
 20
268.449859
  0
POINT
  8
_0-3_CSLAYER12
 62
    4
 10
215.76153600000001
 20
268.46343200000001
  0
LINE
  8
_0-3_CSLAYER12
  6
CONTINUOUS
 62
    7
 10
216.058052
 20
268.43648899999999
 11
216.03315599999999
 21
268.16251499999998
  0
LINE
  8
_0-3_CSLAYER12
  6
CONTINUOUS
 62
    7
 10
216.18254099999999
 20
268.14893999999998
 11
216.03768099999999
 21
268.212309
  0
LINE
  8
_0-3_CSLAYER12
  6
CONTINUOUS
 62
    7
 10
215.90866800000001
 20
268.450063
 11
215.88377199999999
 21
268.17608899999999
  0
LINE
  8
_0-3_CSLAYER12
  6
CONTINUOUS
 62
    7
 10
216.03315599999999
 20
268.16251499999998
 11
215.88829699999999
 21
268.22588500000001
  0
LINE
  8
_0-3_CSLAYER12
  6
CONTINUOUS
 62
    7
 10
215.75928300000001
 20
268.463638
 11
215.734387
 21
268.189663
  0
LINE
  8
_0-3_CSLAYER12
  6
CONTINUOUS
 62
    7
 10
215.88377199999999
 20
268.17608899999999
 11
215.738912
 21
268.23945800000001
  0
LINE
  8
_0-3_CSLAYER12
  6
CONTINUOUS
 62
    7
 10
216.18254099999999
 20
268.14893999999998
 11
216.207437
 21
268.42291399999999
  0
LINE
  8
_0-3_CSLAYER12
  6
CONTINUOUS
 62
    7
 10
215.734387
 20
268.189663
 11
215.585003
 21
268.203239
  0
LINE
  8
_0-3_CSLAYER12
  6
CONTINUOUS
 62
    7
 10
216.48500300000001
 20
268.25323800000001
 11
216.48500300000001
 21
268.50323800000001
  0
LINE
  8
_0-3_CSLAYER12
  6
CONTINUOUS
 62
    7
 10
216.48500300000001
 20
268.25323800000001
 11
216.342636
 21
268.27823899999999
  0
LINE
  8
_0-3_CSLAYER12
  6
CONTINUOUS
 62
    7
 10
215.60989900000001
 20
268.203239
 11
215.60989900000001
 21
268.80549999999999
  0
ENDBLK
  0
BLOCK
  2
-078-BLKF0085
 70
   64
 10
0
 20
0
 30
0
  0
ARC
  8
_0-3_CSLAYER12
  6
CONTINUOUS
 62
    7
 10
214.03582
 20
268.22198800000001
 40
0.125817
 50
131.82972699999999
 51
228.17028799999997
  0
ARC
  8
_0-3_CSLAYER12
  6
CONTINUOUS
 62
    7
 10
214.35041000000001
 20
268.50323800000001
 40
0.4404069999999998
 50
154.80233799999999
 51
205.19766200000004
  0
ARC
  8
_0-3_CSLAYER12
  6
CONTINUOUS
 62
    7
 10
214.03582
 20
268.78448800000001
 40
0.125817
 50
131.82972699999999
 51
228.17027299999995
  0
LINE
  8
_0-3_CSLAYER12
  6
CONTINUOUS
 62
    7
 10
213.95191
 20
268.12823800000001
 11
214.335003
 21
268.12823800000001
  0
LINE
  8
_0-3_CSLAYER12
  6
CONTINUOUS
 62
    7
 10
214.335003
 20
268.87823800000001
 11
213.95191
 21
268.87823800000001
  0
LINE
  8
_0-3_CSLAYER12
  6
CONTINUOUS
 62
    7
 10
213.91000299999999
 20
268.22198800000001
 11
213.91000299999999
 21
268.78448800000001
  0
LINE
  8
_0-3_CSLAYER12
  6
CONTINUOUS
 62
    7
 10
213.95191
 20
268.69073800000001
 11
214.23500300000001
 21
268.69073800000001
  0
LINE
  8
_0-3_CSLAYER12
  6
CONTINUOUS
 62
    7
 10
213.95191
 20
268.31573800000001
 11
214.23500300000001
 21
268.31573800000001
  0
LINE
  8
_0-3_CSLAYER12
  6
CONTINUOUS
 62
    7
 10
214.23500300000001
 20
268.12823800000001
 11
214.23500300000001
 21
268.87823800000001
  0
POINT
  8
_0-3_CSLAYER12
 62
    7
 10
214.43500299999999
 20
268.50323800000001
  0
LINE
  8
_0-3_CSLAYER12
  6
CONTINUOUS
 62
    7
 10
214.335003
 20
268.078239
 11
214.43500299999999
 21
268.078239
  0
LINE
  8
_0-3_CSLAYER12
  6
CONTINUOUS
 62
    7
 10
214.335003
 20
268.92823900000002
 11
214.43500299999999
 21
268.92823900000002
  0
LINE
  8
_0-3_CSLAYER12
  6
CONTINUOUS
 62
    7
 10
214.335003
 20
268.078239
 11
214.335003
 21
268.92823900000002
  0
LINE
  8
_0-3_CSLAYER12
  6
CONTINUOUS
 62
    7
 10
214.23500300000001
 20
268.473004
 11
214.335003
 21
268.58539999999999
  0
LINE
  8
_0-3_CSLAYER12
  6
CONTINUOUS
 62
    7
 10
214.23500300000001
 20
268.43099599999999
 11
214.335003
 21
268.54339299999998
  0
ENDBLK
  0
BLOCK
  2
-079-BLKF0086
 70
   64
 10
0
 20
0
 30
0
  0
ARC
  8
_0-3_CSLAYER12
  6
CONTINUOUS
 62
    7
 10
179.134186
 20
268.22198800000001
 40
0.125817
 50
311.82971199999997
 51
48.170273000000066
  0
ARC
  8
_0-3_CSLAYER12
  6
CONTINUOUS
 62
    7
 10
178.81959599999999
 20
268.50323800000001
 40
0.4404069999999998
 50
334.80233800000002
 51
25.19766199999998
  0
ARC
  8
_0-3_CSLAYER12
  6
CONTINUOUS
 62
    7
 10
179.134186
 20
268.78448800000001
 40
0.125817
 50
311.82972699999999
 51
48.170273000000066
  0
LINE
  8
_0-3_CSLAYER12
  6
CONTINUOUS
 62
    7
 10
179.218096
 20
268.12823800000001
 11
178.835003
 21
268.12823800000001
  0
LINE
  8
_0-3_CSLAYER12
  6
CONTINUOUS
 62
    7
 10
178.835003
 20
268.87823800000001
 11
179.218096
 21
268.87823800000001
  0
LINE
  8
_0-3_CSLAYER12
  6
CONTINUOUS
 62
    7
 10
179.26000300000001
 20
268.22198800000001
 11
179.26000300000001
 21
268.78448800000001
  0
LINE
  8
_0-3_CSLAYER12
  6
CONTINUOUS
 62
    7
 10
179.218096
 20
268.69073800000001
 11
178.93500299999999
 21
268.69073800000001
  0
LINE
  8
_0-3_CSLAYER12
  6
CONTINUOUS
 62
    7
 10
179.218096
 20
268.31573800000001
 11
178.93500299999999
 21
268.31573800000001
  0
LINE
  8
_0-3_CSLAYER12
  6
CONTINUOUS
 62
    7
 10
178.93500299999999
 20
268.12823800000001
 11
178.93500299999999
 21
268.87823800000001
  0
POINT
  8
_0-3_CSLAYER12
 62
    7
 10
178.73500300000001
 20
268.50323800000001
  0
LINE
  8
_0-3_CSLAYER12
  6
CONTINUOUS
 62
    7
 10
178.835003
 20
268.078239
 11
178.73500300000001
 21
268.078239
  0
LINE
  8
_0-3_CSLAYER12
  6
CONTINUOUS
 62
    7
 10
178.835003
 20
268.92823900000002
 11
178.73500300000001
 21
268.92823900000002
  0
LINE
  8
_0-3_CSLAYER12
  6
CONTINUOUS
 62
    7
 10
178.835003
 20
268.078239
 11
178.835003
 21
268.92823900000002
  0
LINE
  8
_0-3_CSLAYER12
  6
CONTINUOUS
 62
    7
 10
178.93500299999999
 20
268.473004
 11
178.835003
 21
268.58539999999999
  0
LINE
  8
_0-3_CSLAYER12
  6
CONTINUOUS
 62
    7
 10
178.93500299999999
 20
268.43099599999999
 11
178.835003
 21
268.54339299999998
  0
ENDBLK
  0
BLOCK
  2
-080-BLKF0087
 70
   64
 10
0
 20
0
 30
0
  0
LINE
  8
_0-3_CSLAYER12
  6
CONTINUOUS
 62
    7
 10
176.83807999999999
 20
268.87110999999999
 11
176.98746499999999
 21
268.85753599999998
  0
LINE
  8
_0-3_CSLAYER12
  6
CONTINUOUS
 62
    7
 10
176.83807999999999
 20
268.87110999999999
 11
176.81318400000001
 21
268.59713699999998
  0
LINE
  8
_0-3_CSLAYER12
  6
CONTINUOUS
 62
    7
 10
176.81093100000001
 20
268.59734099999997
 11
177.56010699999999
 21
268.52926400000001
  0
LINE
  8
_0-3_CSLAYER12
  6
CONTINUOUS
 62
    7
 10
177.585003
 20
268.80323900000002
 11
178.585003
 21
268.80323900000002
  0
POINT
  8
_0-3_CSLAYER12
 62
    4
 10
176.96031600000001
 20
268.58376700000002
  0
POINT
  8
_0-3_CSLAYER12
 62
    4
 10
177.1097
 20
268.57019200000002
  0
POINT
  8
_0-3_CSLAYER12
 62
    4
 10
177.259085
 20
268.55661900000001
  0
POINT
  8
_0-3_CSLAYER12
 62
    4
 10
177.408469
 20
268.54304300000001
  0
LINE
  8
_0-3_CSLAYER12
  6
CONTINUOUS
 62
    7
 10
177.111954
 20
268.56998800000002
 11
177.13684900000001
 21
268.84396099999998
  0
LINE
  8
_0-3_CSLAYER12
  6
CONTINUOUS
 62
    7
 10
176.98746499999999
 20
268.85753599999998
 11
177.13232400000001
 21
268.79416600000002
  0
LINE
  8
_0-3_CSLAYER12
  6
CONTINUOUS
 62
    7
 10
177.26133799999999
 20
268.55641300000002
 11
177.28623400000001
 21
268.83038800000003
  0
LINE
  8
_0-3_CSLAYER12
  6
CONTINUOUS
 62
    7
 10
177.13684900000001
 20
268.84396099999998
 11
177.28170900000001
 21
268.78059300000001
  0
LINE
  8
_0-3_CSLAYER12
  6
CONTINUOUS
 62
    7
 10
177.41072299999999
 20
268.54283900000001
 11
177.43561800000001
 21
268.81681200000003
  0
LINE
  8
_0-3_CSLAYER12
  6
CONTINUOUS
 62
    7
 10
177.28623400000001
 20
268.83038800000003
 11
177.431093
 21
268.76701700000001
  0
LINE
  8
_0-3_CSLAYER12
  6
CONTINUOUS
 62
    7
 10
176.98746499999999
 20
268.85753599999998
 11
176.962569
 21
268.58356199999997
  0
LINE
  8
_0-3_CSLAYER12
  6
CONTINUOUS
 62
    7
 10
177.43561800000001
 20
268.81681200000003
 11
177.585003
 21
268.80323900000002
  0
LINE
  8
_0-3_CSLAYER12
  6
CONTINUOUS
 62
    7
 10
176.68500299999999
 20
268.75323800000001
 11
176.68500299999999
 21
268.50323800000001
  0
LINE
  8
_0-3_CSLAYER12
  6
CONTINUOUS
 62
    7
 10
176.68500299999999
 20
268.75323800000001
 11
176.827369
 21
268.72823799999998
  0
LINE
  8
_0-3_CSLAYER12
  6
CONTINUOUS
 62
    7
 10
177.56010699999999
 20
268.52926400000001
 11
177.56010699999999
 21
268.50323800000001
  0
LINE
  8
_0-3_CSLAYER12
  6
CONTINUOUS
 62
    7
 10
176.83807999999999
 20
268.13536699999997
 11
176.98746499999999
 21
268.14893999999998
  0
LINE
  8
_0-3_CSLAYER12
  6
CONTINUOUS
 62
    7
 10
176.83807999999999
 20
268.13536699999997
 11
176.81318400000001
 21
268.40933899999999
  0
LINE
  8
_0-3_CSLAYER12
  6
CONTINUOUS
 62
    7
 10
176.81093100000001
 20
268.40913499999999
 11
177.56010699999999
 21
268.47721200000001
  0
LINE
  8
_0-3_CSLAYER12
  6
CONTINUOUS
 62
    7
 10
177.585003
 20
268.203239
 11
178.585003
 21
268.203239
  0
POINT
  8
_0-3_CSLAYER12
 62
    4
 10
176.96031600000001
 20
268.42271
  0
POINT
  8
_0-3_CSLAYER12
 62
    4
 10
177.1097
 20
268.436284
  0
POINT
  8
_0-3_CSLAYER12
 62
    4
 10
177.259085
 20
268.449859
  0
POINT
  8
_0-3_CSLAYER12
 62
    4
 10
177.408469
 20
268.46343200000001
  0
LINE
  8
_0-3_CSLAYER12
  6
CONTINUOUS
 62
    7
 10
177.111954
 20
268.43648899999999
 11
177.13684900000001
 21
268.16251499999998
  0
LINE
  8
_0-3_CSLAYER12
  6
CONTINUOUS
 62
    7
 10
176.98746499999999
 20
268.14893999999998
 11
177.13232400000001
 21
268.212309
  0
LINE
  8
_0-3_CSLAYER12
  6
CONTINUOUS
 62
    7
 10
177.26133799999999
 20
268.450063
 11
177.28623400000001
 21
268.17608899999999
  0
LINE
  8
_0-3_CSLAYER12
  6
CONTINUOUS
 62
    7
 10
177.13684900000001
 20
268.16251499999998
 11
177.28170900000001
 21
268.22588500000001
  0
LINE
  8
_0-3_CSLAYER12
  6
CONTINUOUS
 62
    7
 10
177.41072299999999
 20
268.463638
 11
177.43561800000001
 21
268.189663
  0
LINE
  8
_0-3_CSLAYER12
  6
CONTINUOUS
 62
    7
 10
177.28623400000001
 20
268.17608899999999
 11
177.431093
 21
268.23945800000001
  0
LINE
  8
_0-3_CSLAYER12
  6
CONTINUOUS
 62
    7
 10
176.98746499999999
 20
268.14893999999998
 11
176.962569
 21
268.42291399999999
  0
LINE
  8
_0-3_CSLAYER12
  6
CONTINUOUS
 62
    7
 10
177.43561800000001
 20
268.189663
 11
177.585003
 21
268.203239
  0
LINE
  8
_0-3_CSLAYER12
  6
CONTINUOUS
 62
    7
 10
176.68500299999999
 20
268.25323800000001
 11
176.68500299999999
 21
268.50323800000001
  0
LINE
  8
_0-3_CSLAYER12
  6
CONTINUOUS
 62
    7
 10
176.68500299999999
 20
268.25323800000001
 11
176.827369
 21
268.27823899999999
  0
LINE
  8
_0-3_CSLAYER12
  6
CONTINUOUS
 62
    7
 10
177.56010699999999
 20
268.203239
 11
177.56010699999999
 21
268.80549999999999
  0
ENDBLK
  0
BLOCK
  2
-081-BLKF0088
 70
   64
 10
0
 20
0
 30
0
  0
LINE
  8
_0-3_CSLAYER12
  6
CONTINUOUS
 62
    3
 10
212.74750299999999
 20
269.203239
 11
212.74750299999999
 21
269.143238
  0
LINE
  8
_0-3_CSLAYER12
  6
CONTINUOUS
 62
    3
 10
212.74750299999999
 20
269.203239
 11
213.48500300000001
 21
269.203239
  0
LINE
  8
_0-3_CSLAYER12
  6
CONTINUOUS
 62
    3
 10
213.585003
 20
269.10323799999998
 11
213.585003
 21
269.05737499999998
  0
LINE
  8
_0-3_CSLAYER12
  6
CONTINUOUS
 62
    3
 10
213.48500300000001
 20
268.40323799999999
 11
212.74750299999999
 21
268.40323799999999
  0
LINE
  8
_0-3_CSLAYER12
  6
CONTINUOUS
 62
    3
 10
212.74750299999999
 20
268.40323799999999
 11
212.74750299999999
 21
268.46323799999999
  0
POINT
  8
_0-3_CSLAYER12
 62
    7
 10
213.585003
 20
268.80323800000002
  0
LINE
  8
_0-3_CSLAYER12
  6
CONTINUOUS
 62
    3
 10
213.51000300000001
 20
268.98573800000003
 11
213.51000300000001
 21
268.81823900000001
  0
LINE
  8
_0-3_CSLAYER12
  6
CONTINUOUS
 62
    3
 10
213.43500299999999
 20
269.02944300000001
 11
213.43500299999999
 21
268.57703400000003
  0
LINE
  8
_0-3_CSLAYER12
  6
CONTINUOUS
 62
    3
 10
213.51000300000001
 20
268.98573800000003
 11
213.559653
 21
269.01387399999999
  0
LINE
  8
_0-3_CSLAYER12
  6
CONTINUOUS
 62
    3
 10
213.51000300000001
 20
268.62073800000002
 11
213.559653
 21
268.592603
  0
LINE
  8
_0-3_CSLAYER12
  6
CONTINUOUS
 62
    3
 10
212.86000300000001
 20
269.143238
 11
212.74750299999999
 21
269.143238
  0
LINE
  8
_0-3_CSLAYER12
  6
CONTINUOUS
 62
    3
 10
212.86000300000001
 20
268.46323799999999
 11
212.74750299999999
 21
268.46323799999999
  0
LINE
  8
_0-3_CSLAYER12
  6
CONTINUOUS
 62
    3
 10
212.86000300000001
 20
269.143238
 11
212.86000300000001
 21
269.00823800000001
  0
LINE
  8
_0-3_CSLAYER12
  6
CONTINUOUS
 62
    3
 10
212.86000300000001
 20
268.46323799999999
 11
212.86000300000001
 21
268.59823799999998
  0
LINE
  8
_0-3_CSLAYER12
  6
CONTINUOUS
 62
    3
 10
212.93500299999999
 20
269.12823800000001
 11
212.93500299999999
 21
268.91232600000001
  0
LINE
  8
_0-3_CSLAYER12
  6
CONTINUOUS
 62
    3
 10
212.93500299999999
 20
268.47823799999998
 11
212.93500299999999
 21
268.69415099999998
  0
LINE
  8
_0-3_CSLAYER12
  6
CONTINUOUS
 62
    3
 10
212.93500299999999
 20
269.12823800000001
 11
213.48500300000001
 21
269.12823800000001
  0
LINE
  8
_0-3_CSLAYER12
  6
CONTINUOUS
 62
    3
 10
212.93500299999999
 20
268.47823799999998
 11
213.48500300000001
 21
268.47823799999998
  0
LINE
  8
_0-3_CSLAYER12
  6
CONTINUOUS
 62
    3
 10
213.43500299999999
 20
269.02944300000001
 11
213.49732800000001
 21
269.06476099999998
  0
LINE
  8
_0-3_CSLAYER12
  6
CONTINUOUS
 62
    3
 10
213.43500299999999
 20
268.57703400000003
 11
213.49732800000001
 21
268.54171600000001
  0
LINE
  8
_0-3_CSLAYER12
  6
CONTINUOUS
 62
    3
 10
213.51000300000001
 20
269.10323799999998
 11
213.51000300000001
 21
269.08651099999997
  0
LINE
  8
_0-3_CSLAYER12
  6
CONTINUOUS
 62
    3
 10
213.51000300000001
 20
268.51996600000001
 11
213.51000300000001
 21
268.50323800000001
  0
LINE
  8
_0-3_CSLAYER12
  6
CONTINUOUS
 62
    3
 10
213.585003
 20
268.549102
 11
213.585003
 21
268.50323800000001
  0
ARC
  8
_0-3_CSLAYER12
  6
CONTINUOUS
 62
    3
 10
213.48500300000001
 20
269.10323799999998
 40
0.1
 50
0
 51
90
  0
ARC
  8
_0-3_CSLAYER12
  6
CONTINUOUS
 62
    3
 10
213.48500300000001
 20
268.50323800000001
 40
0.1
 50
270
 51
0
  0
ARC
  8
_0-3_CSLAYER12
  6
CONTINUOUS
 62
    3
 10
213.53500299999999
 20
268.549102
 40
0.05
 50
0
 51
60.461218000000002
  0
ARC
  8
_0-3_CSLAYER12
  6
CONTINUOUS
 62
    3
 10
213.53500299999999
 20
269.05737499999998
 40
0.05
 50
299.53878200000003
 51
0
  0
ARC
  8
_0-3_CSLAYER12
  6
CONTINUOUS
 62
    3
 10
213.48500300000001
 20
269.10323799999998
 40
0.025
 50
0
 51
90
  0
ARC
  8
_0-3_CSLAYER12
  6
CONTINUOUS
 62
    3
 10
213.48500300000001
 20
269.08651099999997
 40
0.025
 50
299.53878200000003
 51
0
  0
ARC
  8
_0-3_CSLAYER12
  6
CONTINUOUS
 62
    3
 10
213.48500300000001
 20
268.51996600000001
 40
0.025
 50
0
 51
60.461218000000002
  0
ARC
  8
_0-3_CSLAYER12
  6
CONTINUOUS
 62
    3
 10
213.48500300000001
 20
268.50323800000001
 40
0.025
 50
270
 51
0
  0
LINE
  8
_0-3_CSLAYER12
  6
CONTINUOUS
 62
    3
 10
211.63500300000001
 20
269.203239
 11
212.32250300000001
 21
269.203239
  0
LINE
  8
_0-3_CSLAYER12
  6
CONTINUOUS
 62
    3
 10
212.32250300000001
 20
269.203239
 11
212.32250300000001
 21
269.143238
  0
LINE
  8
_0-3_CSLAYER12
  6
CONTINUOUS
 62
    3
 10
212.32250300000001
 20
269.143238
 11
212.210003
 21
269.143238
  0
LINE
  8
_0-3_CSLAYER12
  6
CONTINUOUS
 62
    3
 10
212.32250300000001
 20
268.46323799999999
 11
212.32250300000001
 21
268.40323799999999
  0
LINE
  8
_0-3_CSLAYER12
  6
CONTINUOUS
 62
    3
 10
212.32250300000001
 20
268.40323799999999
 11
211.63500300000001
 21
268.40323799999999
  0
LINE
  8
_0-3_CSLAYER12
  6
CONTINUOUS
 62
    3
 10
212.32250300000001
 20
268.46323799999999
 11
212.210003
 21
268.46323799999999
  0
LINE
  8
_0-3_CSLAYER12
  6
CONTINUOUS
 62
    3
 10
211.585003
 20
269.15323799999999
 11
211.585003
 21
269.09323799999999
  0
LINE
  8
_0-3_CSLAYER12
  6
CONTINUOUS
 62
    3
 10
211.585003
 20
268.453239
 11
211.585003
 21
268.513238
  0
LINE
  8
_0-3_CSLAYER12
  6
CONTINUOUS
 62
    3
 10
211.66000299999999
 20
269.12823800000001
 11
211.66000299999999
 21
269.09323799999999
  0
LINE
  8
_0-3_CSLAYER12
  6
CONTINUOUS
 62
    3
 10
211.66000299999999
 20
268.47823799999998
 11
211.66000299999999
 21
268.513238
  0
LINE
  8
_0-3_CSLAYER12
  6
CONTINUOUS
 62
    3
 10
212.210003
 20
269.143238
 11
212.210003
 21
269.018238
  0
LINE
  8
_0-3_CSLAYER12
  6
CONTINUOUS
 62
    3
 10
212.210003
 20
268.46323799999999
 11
212.210003
 21
268.58823799999999
  0
LINE
  8
_0-3_CSLAYER12
  6
CONTINUOUS
 62
    3
 10
212.13500300000001
 20
269.12823800000001
 11
212.13500300000001
 21
268.95823799999999
  0
LINE
  8
_0-3_CSLAYER12
  6
CONTINUOUS
 62
    3
 10
212.13500300000001
 20
268.47823799999998
 11
212.13500300000001
 21
268.64823799999999
  0
LINE
  8
_0-3_CSLAYER12
  6
CONTINUOUS
 62
    3
 10
211.66000299999999
 20
269.09323799999999
 11
211.585003
 21
269.09323799999999
  0
LINE
  8
_0-3_CSLAYER12
  6
CONTINUOUS
 62
    3
 10
211.66000299999999
 20
268.513238
 11
211.585003
 21
268.513238
  0
LINE
  8
_0-3_CSLAYER12
  6
CONTINUOUS
 62
    3
 10
212.13500300000001
 20
269.12823800000001
 11
211.66000299999999
 21
269.12823800000001
  0
LINE
  8
_0-3_CSLAYER12
  6
CONTINUOUS
 62
    3
 10
212.13500300000001
 20
268.47823799999998
 11
211.66000299999999
 21
268.47823799999998
  0
ARC
  8
_0-3_CSLAYER12
  6
CONTINUOUS
 62
    3
 10
211.63500300000001
 20
269.15323799999999
 40
0.05
 50
90
 51
180
  0
ARC
  8
_0-3_CSLAYER12
  6
CONTINUOUS
 62
    3
 10
211.63500300000001
 20
268.453239
 40
0.05
 50
180
 51
270
  0
LINE
  8
_0-3_CSLAYER12
  6
CONTINUOUS
 62
    3
 10
212.73500300000001
 20
268.93323800000002
 11
212.73500300000001
 21
268.67323800000003
  0
LINE
  8
_0-3_CSLAYER12
  6
CONTINUOUS
 62
    3
 10
212.73500300000001
 20
268.93323800000002
 11
212.395003
 21
268.93323800000002
  0
LINE
  8
_0-3_CSLAYER12
  6
CONTINUOUS
 62
    3
 10
212.73500300000001
 20
268.67323800000003
 11
212.395003
 21
268.67323800000003
  0
LINE
  8
_0-3_CSLAYER12
  6
CONTINUOUS
 62
    3
 10
212.13500300000001
 20
268.95823799999999
 11
212.37505200000001
 21
268.934234
  0
LINE
  8
_0-3_CSLAYER12
  6
CONTINUOUS
 62
    3
 10
212.210003
 20
269.018238
 11
212.38500199999999
 21
269.00823800000001
  0
LINE
  8
_0-3_CSLAYER12
  6
CONTINUOUS
 62
    3
 10
212.38500300000001
 20
268.59823799999998
 11
212.210003
 21
268.58823799999999
  0
LINE
  8
_0-3_CSLAYER12
  6
CONTINUOUS
 62
    3
 10
212.86000300000001
 20
269.00823800000001
 11
212.38500199999999
 21
269.00823800000001
  0
LINE
  8
_0-3_CSLAYER12
  6
CONTINUOUS
 62
    3
 10
212.86000300000001
 20
268.59823799999998
 11
212.38500300000001
 21
268.59823799999998
  0
POINT
  8
_0-3_CSLAYER12
 62
    7
 10
213.585003
 20
269.02823799999999
  0
POINT
  8
_0-3_CSLAYER12
 62
    7
 10
213.585003
 20
268.578239
  0
ARC
  8
_0-3_CSLAYER12
  6
CONTINUOUS
 62
    3
 10
212.38500300000001
 20
268.93323800000002
 40
0.01
 50
174.28940700000001
 51
0
  0
ARC
  8
_0-3_CSLAYER12
  6
CONTINUOUS
 62
    3
 10
212.38500300000001
 20
268.67323800000003
 40
0.01
 50
0
 51
185.71059299999999
  0
LINE
  8
_0-3_CSLAYER12
  6
CONTINUOUS
 62
    3
 10
212.37505200000001
 20
268.67224299999998
 11
212.13500300000001
 21
268.64823799999999
  0
ARC
  8
_0-3_CSLAYER12
  6
CONTINUOUS
 62
    3
 10
212.88500300000001
 20
268.80323800000002
 40
0.12
 50
294.62431800000002
 51
315.52248800000001
  0
ARC
  8
_0-3_CSLAYER12
  6
CONTINUOUS
 62
    3
 10
212.95350099999999
 20
268.73597799999999
 40
0.024
 50
315.52248800000001
 51
60
  0
ARC
  8
_0-3_CSLAYER12
  6
CONTINUOUS
 62
    3
 10
212.95350099999999
 20
268.73597799999999
 40
0.024
 50
59.999999999999993
 51
135.52248799999998
  0
ARC
  8
_0-3_CSLAYER12
  6
CONTINUOUS
 62
    3
 10
212.88500300000001
 20
268.80323800000002
 40
0.0719999999999998
 50
44.477511999999997
 51
315.52248800000001
  0
ARC
  8
_0-3_CSLAYER12
  6
CONTINUOUS
 62
    3
 10
212.95350099999999
 20
268.870499
 40
0.024
 50
300
 51
44.47751199999999
  0
ARC
  8
_0-3_CSLAYER12
  6
CONTINUOUS
 62
    3
 10
212.95350099999999
 20
268.870499
 40
0.024
 50
224.47751200000002
 51
300
  0
ARC
  8
_0-3_CSLAYER12
  6
CONTINUOUS
 62
    3
 10
212.88500300000001
 20
268.80323800000002
 40
0.12
 50
44.477511999999997
 51
65.375681999999998
  0
LINE
  8
_0-3_CSLAYER12
  6
CONTINUOUS
 62
    3
 10
213.51000300000001
 20
268.78823799999998
 11
213.51000300000001
 21
268.62073800000002
  0
LINE
  8
_0-3_CSLAYER12
  6
CONTINUOUS
 62
    3
 10
213.495003
 20
268.80323800000002
 11
213.51000300000001
 21
268.78823799999998
  0
LINE
  8
_0-3_CSLAYER12
  6
CONTINUOUS
 62
    3
 10
213.51000300000001
 20
268.81823900000001
 11
213.495003
 21
268.80323800000002
  0
ENDBLK
  0
BLOCK
  2
-082-BLKF0089
 70
   64
 10
0
 20
0
 30
0
  0
LINE
  8
_0-3_CSLAYER12
  6
CONTINUOUS
 62
    3
 10
180.42250300000001
 20
269.203239
 11
180.42250300000001
 21
269.143238
  0
LINE
  8
_0-3_CSLAYER12
  6
CONTINUOUS
 62
    3
 10
180.42250300000001
 20
269.203239
 11
179.68500299999999
 21
269.203239
  0
LINE
  8
_0-3_CSLAYER12
  6
CONTINUOUS
 62
    3
 10
179.585003
 20
269.10323799999998
 11
179.585003
 21
269.05737499999998
  0
LINE
  8
_0-3_CSLAYER12
  6
CONTINUOUS
 62
    3
 10
179.68500299999999
 20
268.40323799999999
 11
180.42250300000001
 21
268.40323799999999
  0
LINE
  8
_0-3_CSLAYER12
  6
CONTINUOUS
 62
    3
 10
180.42250300000001
 20
268.40323799999999
 11
180.42250300000001
 21
268.46323799999999
  0
POINT
  8
_0-3_CSLAYER12
 62
    7
 10
179.585003
 20
268.80323800000002
  0
LINE
  8
_0-3_CSLAYER12
  6
CONTINUOUS
 62
    3
 10
179.66000299999999
 20
268.98573800000003
 11
179.66000299999999
 21
268.81823900000001
  0
LINE
  8
_0-3_CSLAYER12
  6
CONTINUOUS
 62
    3
 10
179.73500300000001
 20
269.02944300000001
 11
179.73500300000001
 21
268.57703400000003
  0
LINE
  8
_0-3_CSLAYER12
  6
CONTINUOUS
 62
    3
 10
179.66000299999999
 20
268.98573800000003
 11
179.61035200000001
 21
269.01387399999999
  0
LINE
  8
_0-3_CSLAYER12
  6
CONTINUOUS
 62
    3
 10
179.66000299999999
 20
268.62073800000002
 11
179.61035200000001
 21
268.592603
  0
LINE
  8
_0-3_CSLAYER12
  6
CONTINUOUS
 62
    3
 10
180.31000299999999
 20
269.143238
 11
180.42250300000001
 21
269.143238
  0
LINE
  8
_0-3_CSLAYER12
  6
CONTINUOUS
 62
    3
 10
180.31000299999999
 20
268.46323799999999
 11
180.42250300000001
 21
268.46323799999999
  0
LINE
  8
_0-3_CSLAYER12
  6
CONTINUOUS
 62
    3
 10
180.31000299999999
 20
269.143238
 11
180.31000299999999
 21
269.00823800000001
  0
LINE
  8
_0-3_CSLAYER12
  6
CONTINUOUS
 62
    3
 10
180.31000299999999
 20
268.46323799999999
 11
180.31000299999999
 21
268.59823799999998
  0
LINE
  8
_0-3_CSLAYER12
  6
CONTINUOUS
 62
    3
 10
180.23500300000001
 20
269.12823800000001
 11
180.23500300000001
 21
268.91232600000001
  0
LINE
  8
_0-3_CSLAYER12
  6
CONTINUOUS
 62
    3
 10
180.23500300000001
 20
268.47823799999998
 11
180.23500300000001
 21
268.69415099999998
  0
LINE
  8
_0-3_CSLAYER12
  6
CONTINUOUS
 62
    3
 10
180.23500300000001
 20
269.12823800000001
 11
179.68500299999999
 21
269.12823800000001
  0
LINE
  8
_0-3_CSLAYER12
  6
CONTINUOUS
 62
    3
 10
180.23500300000001
 20
268.47823799999998
 11
179.68500299999999
 21
268.47823799999998
  0
LINE
  8
_0-3_CSLAYER12
  6
CONTINUOUS
 62
    3
 10
179.73500300000001
 20
269.02944300000001
 11
179.67267699999999
 21
269.06476099999998
  0
LINE
  8
_0-3_CSLAYER12
  6
CONTINUOUS
 62
    3
 10
179.73500300000001
 20
268.57703400000003
 11
179.67267699999999
 21
268.54171600000001
  0
LINE
  8
_0-3_CSLAYER12
  6
CONTINUOUS
 62
    3
 10
179.66000299999999
 20
269.10323799999998
 11
179.66000299999999
 21
269.08651099999997
  0
LINE
  8
_0-3_CSLAYER12
  6
CONTINUOUS
 62
    3
 10
179.66000299999999
 20
268.51996600000001
 11
179.66000299999999
 21
268.50323800000001
  0
LINE
  8
_0-3_CSLAYER12
  6
CONTINUOUS
 62
    3
 10
179.585003
 20
268.549102
 11
179.585003
 21
268.50323800000001
  0
ARC
  8
_0-3_CSLAYER12
  6
CONTINUOUS
 62
    3
 10
179.68500299999999
 20
269.10323799999998
 40
0.1
 50
90
 51
180
  0
ARC
  8
_0-3_CSLAYER12
  6
CONTINUOUS
 62
    3
 10
179.68500299999999
 20
268.50323800000001
 40
0.1
 50
180
 51
270
  0
ARC
  8
_0-3_CSLAYER12
  6
CONTINUOUS
 62
    3
 10
179.63500300000001
 20
268.549102
 40
0.05
 50
119.53878199999998
 51
180
  0
ARC
  8
_0-3_CSLAYER12
  6
CONTINUOUS
 62
    3
 10
179.63500300000001
 20
269.05737499999998
 40
0.05
 50
180
 51
240.46121799999997
  0
ARC
  8
_0-3_CSLAYER12
  6
CONTINUOUS
 62
    3
 10
179.68500299999999
 20
269.10323799999998
 40
0.025
 50
90
 51
180
  0
ARC
  8
_0-3_CSLAYER12
  6
CONTINUOUS
 62
    3
 10
179.68500299999999
 20
269.08651099999997
 40
0.025
 50
180
 51
240.46121799999997
  0
ARC
  8
_0-3_CSLAYER12
  6
CONTINUOUS
 62
    3
 10
179.68500299999999
 20
268.51996600000001
 40
0.025
 50
119.53878199999998
 51
180
  0
ARC
  8
_0-3_CSLAYER12
  6
CONTINUOUS
 62
    3
 10
179.68500299999999
 20
268.50323800000001
 40
0.025
 50
180
 51
270
  0
LINE
  8
_0-3_CSLAYER12
  6
CONTINUOUS
 62
    3
 10
181.53500299999999
 20
269.203239
 11
180.84750299999999
 21
269.203239
  0
LINE
  8
_0-3_CSLAYER12
  6
CONTINUOUS
 62
    3
 10
180.84750299999999
 20
269.203239
 11
180.84750299999999
 21
269.143238
  0
LINE
  8
_0-3_CSLAYER12
  6
CONTINUOUS
 62
    3
 10
180.84750299999999
 20
269.143238
 11
180.960003
 21
269.143238
  0
LINE
  8
_0-3_CSLAYER12
  6
CONTINUOUS
 62
    3
 10
180.84750299999999
 20
268.46323799999999
 11
180.84750299999999
 21
268.40323799999999
  0
LINE
  8
_0-3_CSLAYER12
  6
CONTINUOUS
 62
    3
 10
180.84750299999999
 20
268.40323799999999
 11
181.53500299999999
 21
268.40323799999999
  0
LINE
  8
_0-3_CSLAYER12
  6
CONTINUOUS
 62
    3
 10
180.84750299999999
 20
268.46323799999999
 11
180.960003
 21
268.46323799999999
  0
LINE
  8
_0-3_CSLAYER12
  6
CONTINUOUS
 62
    3
 10
181.585003
 20
269.15323799999999
 11
181.585003
 21
269.09323799999999
  0
LINE
  8
_0-3_CSLAYER12
  6
CONTINUOUS
 62
    3
 10
181.585003
 20
268.453239
 11
181.585003
 21
268.513238
  0
LINE
  8
_0-3_CSLAYER12
  6
CONTINUOUS
 62
    3
 10
181.51000300000001
 20
269.12823800000001
 11
181.51000300000001
 21
269.09323799999999
  0
LINE
  8
_0-3_CSLAYER12
  6
CONTINUOUS
 62
    3
 10
181.51000300000001
 20
268.47823799999998
 11
181.51000300000001
 21
268.513238
  0
LINE
  8
_0-3_CSLAYER12
  6
CONTINUOUS
 62
    3
 10
180.960003
 20
269.143238
 11
180.960003
 21
269.018238
  0
LINE
  8
_0-3_CSLAYER12
  6
CONTINUOUS
 62
    3
 10
180.960003
 20
268.46323799999999
 11
180.960003
 21
268.58823799999999
  0
LINE
  8
_0-3_CSLAYER12
  6
CONTINUOUS
 62
    3
 10
181.03500299999999
 20
269.12823800000001
 11
181.03500299999999
 21
268.95823799999999
  0
LINE
  8
_0-3_CSLAYER12
  6
CONTINUOUS
 62
    3
 10
181.03500299999999
 20
268.47823799999998
 11
181.03500299999999
 21
268.64823799999999
  0
LINE
  8
_0-3_CSLAYER12
  6
CONTINUOUS
 62
    3
 10
181.51000300000001
 20
269.09323799999999
 11
181.585003
 21
269.09323799999999
  0
LINE
  8
_0-3_CSLAYER12
  6
CONTINUOUS
 62
    3
 10
181.51000300000001
 20
268.513238
 11
181.585003
 21
268.513238
  0
LINE
  8
_0-3_CSLAYER12
  6
CONTINUOUS
 62
    3
 10
181.03500299999999
 20
269.12823800000001
 11
181.51000300000001
 21
269.12823800000001
  0
LINE
  8
_0-3_CSLAYER12
  6
CONTINUOUS
 62
    3
 10
181.03500299999999
 20
268.47823799999998
 11
181.51000300000001
 21
268.47823799999998
  0
ARC
  8
_0-3_CSLAYER12
  6
CONTINUOUS
 62
    3
 10
181.53500299999999
 20
269.15323799999999
 40
0.05
 50
0
 51
90
  0
ARC
  8
_0-3_CSLAYER12
  6
CONTINUOUS
 62
    3
 10
181.53500299999999
 20
268.453239
 40
0.05
 50
270
 51
0
  0
LINE
  8
_0-3_CSLAYER12
  6
CONTINUOUS
 62
    3
 10
180.43500299999999
 20
268.93323800000002
 11
180.43500299999999
 21
268.67323800000003
  0
LINE
  8
_0-3_CSLAYER12
  6
CONTINUOUS
 62
    3
 10
180.43500299999999
 20
268.93323800000002
 11
180.775003
 21
268.93323800000002
  0
LINE
  8
_0-3_CSLAYER12
  6
CONTINUOUS
 62
    3
 10
180.43500299999999
 20
268.67323800000003
 11
180.775003
 21
268.67323800000003
  0
LINE
  8
_0-3_CSLAYER12
  6
CONTINUOUS
 62
    3
 10
181.03500299999999
 20
268.95823799999999
 11
180.79495299999999
 21
268.934234
  0
LINE
  8
_0-3_CSLAYER12
  6
CONTINUOUS
 62
    3
 10
180.960003
 20
269.018238
 11
180.78500299999999
 21
269.00823800000001
  0
LINE
  8
_0-3_CSLAYER12
  6
CONTINUOUS
 62
    3
 10
180.78500299999999
 20
268.59823799999998
 11
180.960003
 21
268.58823799999999
  0
LINE
  8
_0-3_CSLAYER12
  6
CONTINUOUS
 62
    3
 10
180.31000299999999
 20
269.00823800000001
 11
180.78500299999999
 21
269.00823800000001
  0
LINE
  8
_0-3_CSLAYER12
  6
CONTINUOUS
 62
    3
 10
180.31000299999999
 20
268.59823799999998
 11
180.78500299999999
 21
268.59823799999998
  0
POINT
  8
_0-3_CSLAYER12
 62
    7
 10
179.585003
 20
269.02823799999999
  0
POINT
  8
_0-3_CSLAYER12
 62
    7
 10
179.585003
 20
268.578239
  0
ARC
  8
_0-3_CSLAYER12
  6
CONTINUOUS
 62
    3
 10
180.78500299999999
 20
268.93323800000002
 40
0.01
 50
180
 51
5.7105929999999603
  0
ARC
  8
_0-3_CSLAYER12
  6
CONTINUOUS
 62
    3
 10
180.78500299999999
 20
268.67323800000003
 40
0.01
 50
354.28940699999998
 51
180
  0
LINE
  8
_0-3_CSLAYER12
  6
CONTINUOUS
 62
    3
 10
180.79495299999999
 20
268.67224299999998
 11
181.03500299999999
 21
268.64823799999999
  0
ARC
  8
_0-3_CSLAYER12
  6
CONTINUOUS
 62
    3
 10
180.28500299999999
 20
268.80323800000002
 40
0.12
 50
224.47751200000002
 51
245.37568200000004
  0
ARC
  8
_0-3_CSLAYER12
  6
CONTINUOUS
 62
    3
 10
180.21650399999999
 20
268.73597799999999
 40
0.024
 50
119.99999999999999
 51
224.47751199999999
  0
ARC
  8
_0-3_CSLAYER12
  6
CONTINUOUS
 62
    3
 10
180.21650399999999
 20
268.73597799999999
 40
0.024
 50
44.477511999999997
 51
119.99999999999999
  0
ARC
  8
_0-3_CSLAYER12
  6
CONTINUOUS
 62
    3
 10
180.28500299999999
 20
268.80323800000002
 40
0.0719999999999998
 50
224.47751200000002
 51
135.52248800000001
  0
ARC
  8
_0-3_CSLAYER12
  6
CONTINUOUS
 62
    3
 10
180.21650399999999
 20
268.870499
 40
0.024
 50
135.52248800000001
 51
240.00000000000003
  0
ARC
  8
_0-3_CSLAYER12
  6
CONTINUOUS
 62
    3
 10
180.21650399999999
 20
268.870499
 40
0.024
 50
239.99999999999997
 51
315.52248800000001
  0
ARC
  8
_0-3_CSLAYER12
  6
CONTINUOUS
 62
    3
 10
180.28500299999999
 20
268.80323800000002
 40
0.12
 50
114.62431799999997
 51
135.52248799999998
  0
LINE
  8
_0-3_CSLAYER12
  6
CONTINUOUS
 62
    3
 10
179.66000299999999
 20
268.78823799999998
 11
179.66000299999999
 21
268.62073800000002
  0
LINE
  8
_0-3_CSLAYER12
  6
CONTINUOUS
 62
    3
 10
179.675003
 20
268.80323800000002
 11
179.66000299999999
 21
268.78823799999998
  0
LINE
  8
_0-3_CSLAYER12
  6
CONTINUOUS
 62
    3
 10
179.66000299999999
 20
268.81823900000001
 11
179.675003
 21
268.80323800000002
  0
ENDBLK
  0
BLOCK
  2
-083-BLKF0090
 70
   64
 10
0
 20
0
 30
0
  0
LINE
  8
_0-3_CSLAYER12
  6
CONTINUOUS
 62
    7
 10
212.376338
 20
268.67823800000002
 11
180.79366300000001
 21
268.67823800000002
  0
LINE
  8
_0-3_CSLAYER12
  6
PHANTOM
 62
    7
 10
212.376338
 20
268.77490399999999
 11
180.79366300000001
 21
268.77490399999999
  0
LINE
  8
_0-3_CSLAYER12
  6
PHANTOM
 62
    7
 10
212.376338
 20
268.84157099999999
 11
180.79366300000001
 21
268.84157099999999
  0
LINE
  8
_0-3_CSLAYER12
  6
CONTINUOUS
 62
    7
 10
212.376338
 20
268.92823800000002
 11
180.79366300000001
 21
268.92823800000002
  0
LINE
  8
_0-3_CSLAYER12
  6
CONTINUOUS
 62
    7
 10
212.376338
 20
268.92823800000002
 11
212.376338
 21
268.67823800000002
  0
LINE
  8
_0-3_CSLAYER12
  6
CONTINUOUS
 62
    7
 10
180.79366300000001
 20
268.92823800000002
 11
180.79366300000001
 21
268.67823800000002
  0
ENDBLK
  0
BLOCK
  2
-084-BLKF0091
 70
   64
 10
0
 20
0
 30
0
  0
LINE
  8
_0-3_CSLAYER12
  6
CONTINUOUS
 62
    7
 10
180.31663
 20
269.02073799999999
 11
180.31663
 21
269.13073900000001
  0
LINE
  8
_0-3_CSLAYER12
  6
CONTINUOUS
 62
    7
 10
180.95337599999999
 20
269.02073799999999
 11
180.95337599999999
 21
269.13073900000001
  0
LINE
  8
_0-3_CSLAYER12
  6
CONTINUOUS
 62
    7
 10
180.31663
 20
269.13073900000001
 11
180.95337599999999
 21
269.13073900000001
  0
LINE
  8
_0-3_CSLAYER12
  6
CONTINUOUS
 62
    7
 10
180.31663
 20
269.02073799999999
 11
180.95337599999999
 21
269.02073799999999
  0
LINE
  8
_0-3_CSLAYER12
  6
CONTINUOUS
 62
    7
 10
180.43500299999999
 20
269.13073900000001
 11
180.43500299999999
 21
269.35323799999998
  0
LINE
  8
_0-3_CSLAYER12
  6
CONTINUOUS
 62
    7
 10
180.835003
 20
269.13073900000001
 11
180.835003
 21
269.35323799999998
  0
ENDBLK
  0
BLOCK
  2
-085-BLKF0092
 70
   64
 10
0
 20
0
 30
0
  0
LINE
  8
_0-3_CSLAYER12
  6
CONTINUOUS
 62
    7
 10
212.853376
 20
269.02073799999999
 11
212.853376
 21
269.13073900000001
  0
LINE
  8
_0-3_CSLAYER12
  6
CONTINUOUS
 62
    7
 10
212.21662900000001
 20
269.02073799999999
 11
212.21662900000001
 21
269.13073900000001
  0
LINE
  8
_0-3_CSLAYER12
  6
CONTINUOUS
 62
    7
 10
212.853376
 20
269.13073900000001
 11
212.21662900000001
 21
269.13073900000001
  0
LINE
  8
_0-3_CSLAYER12
  6
CONTINUOUS
 62
    7
 10
212.853376
 20
269.02073799999999
 11
212.21662900000001
 21
269.02073799999999
  0
LINE
  8
_0-3_CSLAYER12
  6
CONTINUOUS
 62
    7
 10
212.73500200000001
 20
269.13073900000001
 11
212.73500200000001
 21
269.35323799999998
  0
LINE
  8
_0-3_CSLAYER12
  6
CONTINUOUS
 62
    7
 10
212.335002
 20
269.13073900000001
 11
212.335003
 21
269.35323799999998
  0
ENDBLK
  0
BLOCK
  2
-086-BLKF0093
 70
   64
 10
0
 20
0
 30
0
  0
LINE
  8
_0-3_CSLAYER12
  6
CONTINUOUS
 62
    7
 10
212.330747
 20
269.73996099999999
 11
212.330747
 21
269.88988699999999
  0
LINE
  8
_0-3_CSLAYER12
  6
CONTINUOUS
 62
    7
 10
212.37159800000001
 20
269.93073800000002
 11
212.698407
 21
269.93073800000002
  0
LINE
  8
_0-3_CSLAYER12
  6
CONTINUOUS
 62
    7
 10
212.73925800000001
 20
269.88988699999999
 11
212.73925800000001
 21
269.73996099999999
  0
LINE
  8
_0-3_CSLAYER12
  6
CONTINUOUS
 62
    7
 10
212.37159800000001
 20
269.73996099999999
 11
212.37159800000001
 21
269.93073800000002
  0
LINE
  8
_0-3_CSLAYER12
  6
CONTINUOUS
 62
    7
 10
212.698407
 20
269.93073800000002
 11
212.698407
 21
269.73996099999999
  0
LINE
  8
_0-3_CSLAYER12
  6
CONTINUOUS
 62
    7
 10
212.330747
 20
269.88988699999999
 11
212.37159800000001
 21
269.93073800000002
  0
LINE
  8
_0-3_CSLAYER12
  6
CONTINUOUS
 62
    7
 10
212.73925800000001
 20
269.88988699999999
 11
212.698407
 21
269.93073800000002
  0
LINE
  8
_0-3_CSLAYER12
  6
CONTINUOUS
 62
    7
 10
212.330747
 20
269.88988699999999
 11
212.73925800000001
 21
269.88988699999999
  0
ARC
  8
_0-3_CSLAYER12
  6
CONTINUOUS
 62
    7
 10
212.841385
 20
269.60290199999997
 40
0.1370599999999999
 50
41.829712000000001
 51
138.17027299999998
  0
ARC
  8
_0-3_CSLAYER12
  6
CONTINUOUS
 62
    7
 10
212.53500199999999
 20
269.260199
 40
0.479763
 50
64.802338000000006
 51
115.19766200000002
  0
ARC
  8
_0-3_CSLAYER12
  6
CONTINUOUS
 62
    7
 10
212.22861900000001
 20
269.60290199999997
 40
0.1370599999999999
 50
41.829726999999998
 51
138.17027300000001
  0
LINE
  8
_0-3_CSLAYER12
  6
CONTINUOUS
 62
    7
 10
212.943513
 20
269.69430999999997
 11
212.943513
 21
269.44038799999998
  0
LINE
  8
_0-3_CSLAYER12
  6
CONTINUOUS
 62
    7
 10
212.12649200000001
 20
269.44038799999998
 11
212.12649200000001
 21
269.69430999999997
  0
LINE
  8
_0-3_CSLAYER12
  6
CONTINUOUS
 62
    7
 10
212.841385
 20
269.73996099999999
 11
212.22861900000001
 21
269.73996099999999
  0
LINE
  8
_0-3_CSLAYER12
  6
CONTINUOUS
 62
    7
 10
212.330747
 20
269.69430999999997
 11
212.330747
 21
269.44038799999998
  0
LINE
  8
_0-3_CSLAYER12
  6
CONTINUOUS
 62
    7
 10
212.73925800000001
 20
269.69430999999997
 11
212.73925800000001
 21
269.44038799999998
  0
LINE
  8
_0-3_CSLAYER12
  6
CONTINUOUS
 62
    7
 10
212.99798100000001
 20
269.44038799999998
 11
212.072023
 21
269.44038799999998
  0
LINE
  8
_0-3_CSLAYER12
  6
CONTINUOUS
 62
    7
 10
212.99798100000001
 20
269.44038799999998
 11
212.99798100000001
 21
269.35323799999998
  0
LINE
  8
_0-3_CSLAYER12
  6
CONTINUOUS
 62
    7
 10
212.072023
 20
269.44038799999998
 11
212.072023
 21
269.35323799999998
  0
LINE
  8
_0-3_CSLAYER12
  6
CENTER
 62
    7
 10
212.53500199999999
 20
268.64012100000002
 11
212.53500199999999
 21
270.24413199999998
  0
ENDBLK
  0
BLOCK
  2
-087-BLKF0094
 70
   64
 10
0
 20
0
 30
0
  0
LINE
  8
_0-3_CSLAYER12
  6
CONTINUOUS
 62
    7
 10
180.839258
 20
269.73996099999999
 11
180.839258
 21
269.88988699999999
  0
LINE
  8
_0-3_CSLAYER12
  6
CONTINUOUS
 62
    7
 10
180.798407
 20
269.93073800000002
 11
180.471598
 21
269.93073800000002
  0
LINE
  8
_0-3_CSLAYER12
  6
CONTINUOUS
 62
    7
 10
180.430747
 20
269.88988699999999
 11
180.430747
 21
269.73996099999999
  0
LINE
  8
_0-3_CSLAYER12
  6
CONTINUOUS
 62
    7
 10
180.798407
 20
269.73996099999999
 11
180.798407
 21
269.93073800000002
  0
LINE
  8
_0-3_CSLAYER12
  6
CONTINUOUS
 62
    7
 10
180.471598
 20
269.93073800000002
 11
180.471598
 21
269.73996099999999
  0
LINE
  8
_0-3_CSLAYER12
  6
CONTINUOUS
 62
    7
 10
180.839258
 20
269.88988699999999
 11
180.798407
 21
269.93073800000002
  0
LINE
  8
_0-3_CSLAYER12
  6
CONTINUOUS
 62
    7
 10
180.430747
 20
269.88988699999999
 11
180.471598
 21
269.93073800000002
  0
LINE
  8
_0-3_CSLAYER12
  6
CONTINUOUS
 62
    7
 10
180.839258
 20
269.88988699999999
 11
180.430747
 21
269.88988699999999
  0
ARC
  8
_0-3_CSLAYER12
  6
CONTINUOUS
 62
    7
 10
180.32862
 20
269.60290199999997
 40
0.1370599999999999
 50
41.829726999999998
 51
138.170288
  0
ARC
  8
_0-3_CSLAYER12
  6
CONTINUOUS
 62
    7
 10
180.63500300000001
 20
269.260199
 40
0.479763
 50
64.802338000000006
 51
115.19766200000002
  0
ARC
  8
_0-3_CSLAYER12
  6
CONTINUOUS
 62
    7
 10
180.94138599999999
 20
269.60290199999997
 40
0.1370599999999999
 50
41.829726999999998
 51
138.17027300000001
  0
LINE
  8
_0-3_CSLAYER12
  6
CONTINUOUS
 62
    7
 10
180.22649200000001
 20
269.69430999999997
 11
180.22649200000001
 21
269.44038799999998
  0
LINE
  8
_0-3_CSLAYER12
  6
CONTINUOUS
 62
    7
 10
181.04351299999999
 20
269.44038799999998
 11
181.04351299999999
 21
269.69430999999997
  0
LINE
  8
_0-3_CSLAYER12
  6
CONTINUOUS
 62
    7
 10
180.32862
 20
269.73996099999999
 11
180.94138599999999
 21
269.73996099999999
  0
LINE
  8
_0-3_CSLAYER12
  6
CONTINUOUS
 62
    7
 10
180.839258
 20
269.69430999999997
 11
180.839258
 21
269.44038799999998
  0
LINE
  8
_0-3_CSLAYER12
  6
CONTINUOUS
 62
    7
 10
180.430747
 20
269.69430999999997
 11
180.430747
 21
269.44038799999998
  0
LINE
  8
_0-3_CSLAYER12
  6
CONTINUOUS
 62
    7
 10
180.17202399999999
 20
269.44038799999998
 11
181.097982
 21
269.44038799999998
  0
LINE
  8
_0-3_CSLAYER12
  6
CONTINUOUS
 62
    7
 10
180.17202399999999
 20
269.44038799999998
 11
180.17202399999999
 21
269.35323799999998
  0
LINE
  8
_0-3_CSLAYER12
  6
CONTINUOUS
 62
    7
 10
181.097982
 20
269.44038799999998
 11
181.097982
 21
269.35323799999998
  0
LINE
  8
_0-3_CSLAYER12
  6
CENTER
 62
    7
 10
180.63500300000001
 20
268.64012100000002
 11
180.63500300000001
 21
270.24413199999998
  0
ENDBLK
  0
BLOCK
  2
-088-_D95
 70
   64
 10
0
 20
0
 30
0
  0
TEXT
  8
_0-0_0
 62
    7
 10
277.35717799999998
 20
157.396759
 40
3.2000000000000002
 41
0.703125
 50
0
  1
11
  0
LINE
  8
_0-0_0
  6
CONTINUOUS
 62
    5
 10
276.43887599999999
 20
136.92487399999999
 11
276.43887599999999
 21
157.633149
  0
LINE
  8
_0-0_0
  6
CONTINUOUS
 62
    5
 10
281.93887599999999
 20
136.92487399999999
 11
281.93887599999999
 21
157.633149
  0
LINE
  8
_0-0_0
  6
CONTINUOUS
 62
    5
 10
276.43887599999999
 20
156.633149
 11
281.93887599999999
 21
156.633149
  0
INSERT
  2
-000-EDTIP_BLACKDOT_S
  8
_0-0_0
 10
276.43887599999999
 20
156.633149
 41
1
 42
1
 50
180
  0
INSERT
  2
-001-EDTIP_BLACKDOT_E
  8
_0-0_0
 10
281.93887599999999
 20
156.633149
 41
1
 42
1
 50
0
  0
ENDBLK
  0
BLOCK
  2
-089-_D96
 70
   64
 10
0
 20
0
 30
0
  0
TEXT
  8
_0-0_0
 62
    7
 10
284.938873
 20
157.63314800000001
 40
3.2000000000000002
 41
0.703125
 50
0
  1
21
  0
LINE
  8
_0-0_0
  6
CONTINUOUS
 62
    5
 10
281.93887599999999
 20
156.633149
 11
292.43887599999999
 21
156.633149
  0
INSERT
  2
-000-EDTIP_BLACKDOT_S
  8
_0-0_0
 10
281.93887599999999
 20
156.633149
 41
1
 42
1
 50
180
  0
INSERT
  2
-001-EDTIP_BLACKDOT_E
  8
_0-0_0
 10
292.43887599999999
 20
156.633149
 41
1
 42
1
 50
0
  0
ENDBLK
  0
BLOCK
  2
-090-_D97
 70
   64
 10
0
 20
0
 30
0
  0
TEXT
  8
_0-0_0
 62
    7
 10
282.098816
 20
164.53762800000001
 40
3.2000000000000002
 41
0.703125
 50
0
  1
32
  0
LINE
  8
_0-0_0
  6
CONTINUOUS
 62
    5
 10
276.43887599999999
 20
156.633149
 11
276.43887599999999
 21
164.044927
  0
LINE
  8
_0-0_0
  6
CONTINUOUS
 62
    5
 10
276.43887599999999
 20
163.044927
 11
292.43887599999999
 21
163.044927
  0
INSERT
  2
-000-EDTIP_BLACKDOT_S
  8
_0-0_0
 10
276.43887599999999
 20
163.044927
 41
1
 42
1
 50
180
  0
INSERT
  2
-001-EDTIP_BLACKDOT_E
  8
_0-0_0
 10
292.43887599999999
 20
163.044927
 41
1
 42
1
 50
0
  0
ENDBLK
  0
BLOCK
  2
-091-_D98
 70
   64
 10
0
 20
0
 30
0
  0
TEXT
  8
_0-0_0
 62
    7
 10
280.188873
 20
111.936424
 40
3.2000000000000002
 41
0.703125
 50
0
  1
40
  0
LINE
  8
_0-0_0
  6
CONTINUOUS
 62
    5
 10
272.43887599999999
 20
126.924874
 11
272.43887599999999
 21
109.936415
  0
LINE
  8
_0-0_0
  6
CONTINUOUS
 62
    5
 10
272.43887599999999
 20
110.936415
 11
292.43887599999999
 21
110.936415
  0
INSERT
  2
-000-EDTIP_BLACKDOT_S
  8
_0-0_0
 10
272.43887599999999
 20
110.936415
 41
1
 42
1
 50
180
  0
INSERT
  2
-001-EDTIP_BLACKDOT_E
  8
_0-0_0
 10
292.43887599999999
 20
110.936415
 41
1
 42
1
 50
0
  0
ENDBLK
  0
BLOCK
  2
-092-_D99
 70
   64
 10
0
 20
0
 30
0
  0
TEXT
  8
_0-0_0
 62
    7
 10
334.67776500000002
 20
136.67486600000001
 40
3.2000000000000002
 41
0.703125
 50
90
  1
32
  0
LINE
  8
_0-0_0
  6
CONTINUOUS
 62
    5
 10
323.08326099999999
 20
131.42487399999999
 11
336.67778900000002
 21
131.42487399999999
  0
LINE
  8
_0-0_0
  6
CONTINUOUS
 62
    5
 10
313.81938300000002
 20
147.42487399999999
 11
336.67778900000002
 21
147.42487399999999
  0
LINE
  8
_0-0_0
  6
CONTINUOUS
 62
    5
 10
335.67778900000002
 20
131.42487399999999
 11
335.67778900000002
 21
147.42487399999999
  0
INSERT
  2
-000-EDTIP_BLACKDOT_S
  8
_0-0_0
 10
335.67778900000002
 20
131.42487399999999
 41
1
 42
1
 50
270
  0
INSERT
  2
-001-EDTIP_BLACKDOT_E
  8
_0-0_0
 10
335.67778900000002
 20
147.42487399999999
 41
1
 42
1
 50
90
  0
ENDBLK
  0
BLOCK
  2
-093-_D100
 70
   64
 10
0
 20
0
 30
0
  0
TEXT
  8
_0-0_0
 62
    7
 10
266.10458399999999
 20
129.17486600000001
 40
3.2000000000000002
 41
0.703125
 50
90
  1
16
  0
LINE
  8
_0-0_0
  6
CONTINUOUS
 62
    5
 10
267.10458599999998
 20
127.424874
 11
267.10458599999998
 21
135.42487399999999
  0
INSERT
  2
-000-EDTIP_BLACKDOT_S
  8
_0-0_0
 10
267.10458599999998
 20
127.424874
 41
1
 42
1
 50
270
  0
INSERT
  2
-001-EDTIP_BLACKDOT_E
  8
_0-0_0
 10
267.10458599999998
 20
135.42487399999999
 41
1
 42
1
 50
90
  0
ENDBLK
  0
BLOCK
  2
-094-_D101
 70
   64
 10
0
 20
0
 30
0
  0
TEXT
  8
_0-0_0
 62
    7
 10
266.10458399999999
 20
143.17486600000001
 40
3.2000000000000002
 41
0.703125
 50
90
  1
40
  0
LINE
  8
_0-0_0
  6
CONTINUOUS
 62
    5
 10
289.93887599999999
 20
155.42487399999999
 11
266.10458599999998
 21
155.42487399999999
  0
LINE
  8
_0-0_0
  6
CONTINUOUS
 62
    5
 10
267.10458599999998
 20
135.42487399999999
 11
267.10458599999998
 21
155.42487399999999
  0
INSERT
  2
-000-EDTIP_BLACKDOT_S
  8
_0-0_0
 10
267.10458599999998
 20
135.42487399999999
 41
1
 42
1
 50
270
  0
INSERT
  2
-001-EDTIP_BLACKDOT_E
  8
_0-0_0
 10
267.10458599999998
 20
155.42487399999999
 41
1
 42
1
 50
90
  0
ENDBLK
  0
BLOCK
  2
-095-BLKF0102
 70
   64
 10
0
 20
0
 30
0
  0
LINE
  8
_0-0_0
  6
CONTINUOUS
 62
    7
 10
292.43887599999999
 20
133.554439
 11
315.09685500000001
 21
110.89646
  0
LINE
  8
_0-0_0
  6
CONTINUOUS
 62
    7
 10
292.43887599999999
 20
131.627137
 11
315.09685500000001
 21
108.969159
  0
LINE
  8
_0-0_0
  6
CONTINUOUS
 62
    7
 10
292.43887599999999
 20
129.699836
 11
315.09685500000001
 21
107.04185699999999
  0
TEXT
  8
_0-0_0
 62
    7
 10
307.25131199999998
 20
153.24311800000001
 40
4.9000000000000004
 41
0.7142859999999997
 50
0
  1
住　戸　側
  0
LINE
  8
_0-0_0
  6
CONTINUOUS
 62
    7
 10
325.90768600000001
 20
152.475268
 11
306.74472200000002
 21
152.475268
  0
LINE
  8
_0-0_0
  6
CONTINUOUS
 62
    7
 10
306.74472200000002
 20
152.475268
 11
306.74472200000002
 21
158.38213200000001
  0
LINE
  8
_0-0_0
  6
CONTINUOUS
 62
    7
 10
306.74472200000002
 20
158.38213200000001
 11
325.90768600000001
 21
158.38213200000001
  0
LINE
  8
_0-0_0
  6
CONTINUOUS
 62
    7
 10
325.90768600000001
 20
158.38213200000001
 11
325.90768600000001
 21
152.475268
  0
LINE
  8
_0-0_0
  6
CONTINUOUS
 62
    7
 10
280.35227400000002
 20
132.67487399999999
 11
280.35227400000002
 21
130.17487399999999
  0
LINE
  8
_0-0_0
  6
CENTER
 62
    7
 10
292.43887599999999
 20
130.42487399999999
 11
290.93887599999999
 21
130.42487399999999
  0
LINE
  8
_0-0_0
  6
CENTER
 62
    7
 10
292.43887599999999
 20
128.42487399999999
 11
290.93887599999999
 21
128.42487399999999
  0
LINE
  8
_0-0_0
  6
CONTINUOUS
 62
    7
 10
279.896322
 20
141.66359600000001
 11
279.896322
 21
142.28872799999999
  0
LINE
  8
_0-0_0
  6
CONTINUOUS
 62
    7
 10
280.30483299999997
 20
142.697238
 11
283.57291800000002
 21
142.697238
  0
LINE
  8
_0-0_0
  6
CONTINUOUS
 62
    7
 10
283.98142899999999
 20
142.28872799999999
 11
283.98142899999999
 21
141.66359600000001
  0
LINE
  8
_0-0_0
  6
CONTINUOUS
 62
    7
 10
280.30483299999997
 20
141.66359600000001
 11
280.30483299999997
 21
142.697238
  0
LINE
  8
_0-0_0
  6
CONTINUOUS
 62
    7
 10
283.57291800000002
 20
142.697238
 11
283.57291800000002
 21
141.66359600000001
  0
LINE
  8
_0-0_0
  6
CONTINUOUS
 62
    7
 10
279.896322
 20
142.28872799999999
 11
280.30483299999997
 21
142.697238
  0
LINE
  8
_0-0_0
  6
CONTINUOUS
 62
    7
 10
283.98142899999999
 20
142.28872799999999
 11
283.57291800000002
 21
142.697238
  0
LINE
  8
_0-0_0
  6
CONTINUOUS
 62
    7
 10
279.896322
 20
142.28872799999999
 11
283.98142899999999
 21
142.28872799999999
  0
ARC
  8
_0-0_0
  6
CONTINUOUS
 62
    7
 10
285.00270499999999
 20
140.29299499999999
 40
1.370601
 50
41.829712000000001
 51
138.17027299999998
  0
ARC
  8
_0-0_0
  6
CONTINUOUS
 62
    7
 10
281.93887599999999
 20
136.86596900000001
 40
4.7976270000000003
 50
64.802338000000006
 51
115.19766200000002
  0
ARC
  8
_0-0_0
  6
CONTINUOUS
 62
    7
 10
278.875046
 20
140.29299399999999
 40
1.3706020000000001
 50
41.829726999999998
 51
138.17027300000001
  0
LINE
  8
_0-0_0
  6
CONTINUOUS
 62
    7
 10
286.02398199999999
 20
141.207075
 11
286.02398199999999
 21
137.79636300000001
  0
LINE
  8
_0-0_0
  6
CONTINUOUS
 62
    7
 10
277.853769
 20
137.79636300000001
 11
277.853769
 21
141.207075
  0
LINE
  8
_0-0_0
  6
CONTINUOUS
 62
    7
 10
285.00270499999999
 20
141.66359600000001
 11
278.875046
 21
141.66359600000001
  0
LINE
  8
_0-0_0
  6
CONTINUOUS
 62
    7
 10
279.896322
 20
141.207075
 11
279.896322
 21
138.66785100000001
  0
LINE
  8
_0-0_0
  6
CONTINUOUS
 62
    7
 10
283.98142899999999
 20
141.207075
 11
283.98142899999999
 21
138.66785100000001
  0
LINE
  8
_0-0_0
  6
CONTINUOUS
 62
    7
 10
286.56866300000002
 20
137.79636300000001
 11
277.30908799999997
 21
137.79636300000001
  0
LINE
  8
_0-0_0
  6
CONTINUOUS
 62
    7
 10
286.56866300000002
 20
137.79636300000001
 11
286.56866300000002
 21
136.92487399999999
  0
LINE
  8
_0-0_0
  6
CONTINUOUS
 62
    7
 10
277.30908799999997
 20
137.79636300000001
 11
277.30908799999997
 21
136.92487399999999
  0
LINE
  8
_0-0_0
  6
CONTINUOUS
 62
    7
 10
277.853769
 20
138.66785100000001
 11
286.02398199999999
 21
138.66785100000001
  0
LINE
  8
_0-0_0
  6
CONTINUOUS
 62
    7
 10
282.14183800000001
 20
137.79636300000001
 11
281.280934
 21
138.66785100000001
  0
LINE
  8
_0-0_0
  6
CONTINUOUS
 62
    7
 10
281.89001200000001
 20
137.79636300000001
 11
281.02910900000001
 21
138.66785100000001
  0
LINE
  8
_0-0_0
  6
CENTER
 62
    7
 10
281.93887599999999
 20
129.79370599999999
 11
281.93887599999999
 21
144.77644799999999
  0
LINE
  8
_0-0_0
  6
CONTINUOUS
 62
    7
 10
285.12260400000002
 20
134.697238
 11
278.75514800000002
 21
134.697238
  0
LINE
  8
_0-0_0
  6
CONTINUOUS
 62
    7
 10
283.93887599999999
 20
134.697238
 11
283.93887599999999
 21
136.92487399999999
  0
LINE
  8
_0-0_0
  6
CONTINUOUS
 62
    7
 10
279.93887599999999
 20
134.697238
 11
279.93887599999999
 21
136.92487399999999
  0
LINE
  8
_0-0_0
  6
CONTINUOUS
 62
    7
 10
278.75514800000002
 20
133.597238
 11
278.75514800000002
 21
134.697238
  0
LINE
  8
_0-0_0
  6
CONTINUOUS
 62
    7
 10
285.12260400000002
 20
133.597238
 11
278.75514800000002
 21
133.597238
  0
LINE
  8
_0-0_0
  6
CONTINUOUS
 62
    7
 10
285.12260400000002
 20
133.597238
 11
285.12260400000002
 21
134.697238
  0
LINE
  8
_0-0_0
  6
CONTINUOUS
 62
    3
 10
284.06387599999999
 20
135.42487399999999
 11
284.06387599999999
 21
134.82487399999999
  0
LINE
  8
_0-0_0
  6
CONTINUOUS
 62
    3
 10
284.06387599999999
 20
135.42487399999999
 11
291.43887599999999
 21
135.42487399999999
  0
LINE
  8
_0-0_0
  6
CONTINUOUS
 62
    3
 10
292.43887599999999
 20
134.42487399999999
 11
292.43887599999999
 21
133.966239
  0
LINE
  8
_0-0_0
  6
CONTINUOUS
 62
    3
 10
291.43887599999999
 20
127.424874
 11
284.06387599999999
 21
127.424874
  0
LINE
  8
_0-0_0
  6
CONTINUOUS
 62
    3
 10
284.06387599999999
 20
127.424874
 11
284.06387599999999
 21
128.02487400000001
  0
POINT
  8
_0-0_0
 62
    7
 10
292.43887599999999
 20
131.42487399999999
  0
LINE
  8
_0-0_0
  6
CONTINUOUS
 62
    3
 10
291.68887599999999
 20
133.24987400000001
 11
291.68887599999999
 21
131.57487399999999
  0
LINE
  8
_0-0_0
  6
CONTINUOUS
 62
    3
 10
290.93887599999999
 20
133.68692100000001
 11
290.93887599999999
 21
129.16282699999999
  0
LINE
  8
_0-0_0
  6
CONTINUOUS
 62
    3
 10
291.68887599999999
 20
133.24987400000001
 11
292.185383
 21
133.531228
  0
LINE
  8
_0-0_0
  6
CONTINUOUS
 62
    3
 10
291.68887599999999
 20
129.599874
 11
292.185383
 21
129.318521
  0
LINE
  8
_0-0_0
  6
CONTINUOUS
 62
    3
 10
285.18887599999999
 20
134.82487399999999
 11
284.06387599999999
 21
134.82487399999999
  0
LINE
  8
_0-0_0
  6
CONTINUOUS
 62
    3
 10
285.18887599999999
 20
128.02487400000001
 11
284.06387599999999
 21
128.02487400000001
  0
LINE
  8
_0-0_0
  6
CONTINUOUS
 62
    3
 10
285.18887599999999
 20
134.82487399999999
 11
285.18887599999999
 21
133.474874
  0
LINE
  8
_0-0_0
  6
CONTINUOUS
 62
    3
 10
285.18887599999999
 20
128.02487400000001
 11
285.18887599999999
 21
129.37487400000001
  0
LINE
  8
_0-0_0
  6
CONTINUOUS
 62
    3
 10
285.93887599999999
 20
134.67487399999999
 11
285.93887599999999
 21
132.51574500000001
  0
LINE
  8
_0-0_0
  6
CONTINUOUS
 62
    3
 10
285.93887599999999
 20
128.17487399999999
 11
285.93887599999999
 21
130.334003
  0
LINE
  8
_0-0_0
  6
CONTINUOUS
 62
    3
 10
285.93887599999999
 20
134.67487399999999
 11
291.43887599999999
 21
134.67487399999999
  0
LINE
  8
_0-0_0
  6
CONTINUOUS
 62
    3
 10
285.93887599999999
 20
128.17487399999999
 11
291.43887599999999
 21
128.17487399999999
  0
LINE
  8
_0-0_0
  6
CONTINUOUS
 62
    3
 10
290.93887599999999
 20
133.68692100000001
 11
291.56213000000002
 21
134.040098
  0
LINE
  8
_0-0_0
  6
CONTINUOUS
 62
    3
 10
290.93887599999999
 20
129.16282699999999
 11
291.56213000000002
 21
128.809651
  0
LINE
  8
_0-0_0
  6
CONTINUOUS
 62
    3
 10
291.68887599999999
 20
134.42487399999999
 11
291.68887599999999
 21
134.25760399999999
  0
LINE
  8
_0-0_0
  6
CONTINUOUS
 62
    3
 10
291.68887599999999
 20
128.59214499999999
 11
291.68887599999999
 21
128.42487399999999
  0
LINE
  8
_0-0_0
  6
CONTINUOUS
 62
    3
 10
292.43887599999999
 20
128.88351
 11
292.43887599999999
 21
128.42487399999999
  0
ARC
  8
_0-0_0
  6
CONTINUOUS
 62
    3
 10
291.43887599999999
 20
134.42487399999999
 40
1
 50
0
 51
90
  0
ARC
  8
_0-0_0
  6
CONTINUOUS
 62
    3
 10
291.43887599999999
 20
128.42487399999999
 40
1
 50
270
 51
0
  0
ARC
  8
_0-0_0
  6
CONTINUOUS
 62
    3
 10
291.93887599999999
 20
128.88351
 40
0.5
 50
0
 51
60.461218000000002
  0
ARC
  8
_0-0_0
  6
CONTINUOUS
 62
    3
 10
291.93887599999999
 20
133.966239
 40
0.5
 50
299.53878200000003
 51
0
  0
ARC
  8
_0-0_0
  6
CONTINUOUS
 62
    3
 10
291.43887599999999
 20
134.42487399999999
 40
0.25
 50
0
 51
90
  0
ARC
  8
_0-0_0
  6
CONTINUOUS
 62
    3
 10
291.43887599999999
 20
134.25760399999999
 40
0.25
 50
299.53878200000003
 51
0
  0
ARC
  8
_0-0_0
  6
CONTINUOUS
 62
    3
 10
291.43887599999999
 20
128.59214499999999
 40
0.25
 50
0
 51
60.461218000000002
  0
ARC
  8
_0-0_0
  6
CONTINUOUS
 62
    3
 10
291.43887599999999
 20
128.42487399999999
 40
0.25
 50
270
 51
0
  0
LINE
  8
_0-0_0
  6
CONTINUOUS
 62
    3
 10
272.93887599999999
 20
135.42487399999999
 11
279.81387599999999
 21
135.42487399999999
  0
LINE
  8
_0-0_0
  6
CONTINUOUS
 62
    3
 10
279.81387599999999
 20
135.42487399999999
 11
279.81387599999999
 21
134.82487399999999
  0
LINE
  8
_0-0_0
  6
CONTINUOUS
 62
    3
 10
279.81387599999999
 20
134.82487399999999
 11
278.68887599999999
 21
134.82487399999999
  0
LINE
  8
_0-0_0
  6
CONTINUOUS
 62
    3
 10
279.81387599999999
 20
128.02487400000001
 11
279.81387599999999
 21
127.424874
  0
LINE
  8
_0-0_0
  6
CONTINUOUS
 62
    3
 10
279.81387599999999
 20
127.424874
 11
272.93887599999999
 21
127.424874
  0
LINE
  8
_0-0_0
  6
CONTINUOUS
 62
    3
 10
279.81387599999999
 20
128.02487400000001
 11
278.68887599999999
 21
128.02487400000001
  0
LINE
  8
_0-0_0
  6
CONTINUOUS
 62
    3
 10
272.43887599999999
 20
134.92487399999999
 11
272.43887599999999
 21
134.32487399999999
  0
LINE
  8
_0-0_0
  6
CONTINUOUS
 62
    3
 10
272.43887599999999
 20
127.924874
 11
272.43887599999999
 21
128.52487400000001
  0
LINE
  8
_0-0_0
  6
CONTINUOUS
 62
    3
 10
273.18887599999999
 20
134.67487399999999
 11
273.18887599999999
 21
134.32487399999999
  0
LINE
  8
_0-0_0
  6
CONTINUOUS
 62
    3
 10
273.18887599999999
 20
128.17487399999999
 11
273.18887599999999
 21
128.52487400000001
  0
LINE
  8
_0-0_0
  6
CONTINUOUS
 62
    3
 10
278.68887599999999
 20
134.82487399999999
 11
278.68887599999999
 21
133.57487399999999
  0
LINE
  8
_0-0_0
  6
CONTINUOUS
 62
    3
 10
278.68887599999999
 20
128.02487400000001
 11
278.68887599999999
 21
129.27487400000001
  0
LINE
  8
_0-0_0
  6
CONTINUOUS
 62
    3
 10
277.93887599999999
 20
134.67487399999999
 11
277.93887599999999
 21
132.974874
  0
LINE
  8
_0-0_0
  6
CONTINUOUS
 62
    3
 10
277.93887599999999
 20
128.17487399999999
 11
277.93887599999999
 21
129.87487400000001
  0
LINE
  8
_0-0_0
  6
CONTINUOUS
 62
    3
 10
273.18887599999999
 20
134.32487399999999
 11
272.43887599999999
 21
134.32487399999999
  0
LINE
  8
_0-0_0
  6
CONTINUOUS
 62
    3
 10
273.18887599999999
 20
128.52487400000001
 11
272.43887599999999
 21
128.52487400000001
  0
LINE
  8
_0-0_0
  6
CONTINUOUS
 62
    3
 10
277.93887599999999
 20
134.67487399999999
 11
273.18887599999999
 21
134.67487399999999
  0
LINE
  8
_0-0_0
  6
CONTINUOUS
 62
    3
 10
277.93887599999999
 20
128.17487399999999
 11
273.18887599999999
 21
128.17487399999999
  0
ARC
  8
_0-0_0
  6
CONTINUOUS
 62
    3
 10
272.93887599999999
 20
134.92487399999999
 40
0.5
 50
90
 51
180
  0
ARC
  8
_0-0_0
  6
CONTINUOUS
 62
    3
 10
272.93887599999999
 20
127.924874
 40
0.5
 50
180
 51
270
  0
LINE
  8
_0-0_0
  6
CONTINUOUS
 62
    3
 10
283.93887599999999
 20
132.724874
 11
283.93887599999999
 21
130.12487400000001
  0
LINE
  8
_0-0_0
  6
CONTINUOUS
 62
    3
 10
283.93887599999999
 20
132.724874
 11
280.53887600000002
 21
132.724874
  0
LINE
  8
_0-0_0
  6
CONTINUOUS
 62
    3
 10
283.93887599999999
 20
130.12487400000001
 11
280.53887600000002
 21
130.12487400000001
  0
LINE
  8
_0-0_0
  6
CONTINUOUS
 62
    3
 10
277.93887599999999
 20
132.974874
 11
280.33937300000002
 21
132.734825
  0
LINE
  8
_0-0_0
  6
CONTINUOUS
 62
    3
 10
278.68887599999999
 20
133.57487399999999
 11
280.43887599999999
 21
133.474874
  0
LINE
  8
_0-0_0
  6
CONTINUOUS
 62
    3
 10
280.43887699999999
 20
129.37487400000001
 11
278.68887599999999
 21
129.27487400000001
  0
LINE
  8
_0-0_0
  6
CONTINUOUS
 62
    3
 10
285.18887599999999
 20
133.474874
 11
280.43887599999999
 21
133.474874
  0
LINE
  8
_0-0_0
  6
CONTINUOUS
 62
    3
 10
285.18887599999999
 20
129.37487400000001
 11
280.43887699999999
 21
129.37487400000001
  0
POINT
  8
_0-0_0
 62
    7
 10
292.43887599999999
 20
133.67487399999999
  0
POINT
  8
_0-0_0
 62
    7
 10
292.43887599999999
 20
129.17487399999999
  0
ARC
  8
_0-0_0
  6
CONTINUOUS
 62
    3
 10
280.43887599999999
 20
132.724874
 40
0.1
 50
174.28940700000001
 51
0
  0
ARC
  8
_0-0_0
  6
CONTINUOUS
 62
    3
 10
280.43887599999999
 20
130.12487400000001
 40
0.1
 50
0
 51
185.71059299999999
  0
LINE
  8
_0-0_0
  6
CONTINUOUS
 62
    3
 10
280.33937300000002
 20
130.114924
 11
277.93887599999999
 21
129.87487400000001
  0
ARC
  8
_0-0_0
  6
CONTINUOUS
 62
    3
 10
285.43887599999999
 20
131.42487399999999
 40
1.2
 50
294.62431800000002
 51
315.52248800000001
  0
ARC
  8
_0-0_0
  6
CONTINUOUS
 62
    3
 10
286.12386199999997
 20
130.75227100000001
 40
0.2399999999999999
 50
315.52248800000001
 51
60
  0
ARC
  8
_0-0_0
  6
CONTINUOUS
 62
    3
 10
286.12386199999997
 20
130.75227100000001
 40
0.2399999999999999
 50
59.999999999999993
 51
135.52248799999998
  0
ARC
  8
_0-0_0
  6
CONTINUOUS
 62
    3
 10
285.43887599999999
 20
131.42487399999999
 40
0.7199999999999997
 50
44.477511999999997
 51
315.52248800000001
  0
ARC
  8
_0-0_0
  6
CONTINUOUS
 62
    3
 10
286.12386199999997
 20
132.097478
 40
0.2399999999999999
 50
300
 51
44.47751199999999
  0
ARC
  8
_0-0_0
  6
CONTINUOUS
 62
    3
 10
286.12386199999997
 20
132.097478
 40
0.2399999999999999
 50
224.47751200000002
 51
300
  0
ARC
  8
_0-0_0
  6
CONTINUOUS
 62
    3
 10
285.43887599999999
 20
131.42487399999999
 40
1.2
 50
44.477511999999997
 51
65.375681999999998
  0
LINE
  8
_0-0_0
  6
CONTINUOUS
 62
    3
 10
291.68887599999999
 20
131.27487400000001
 11
291.68887599999999
 21
129.599874
  0
LINE
  8
_0-0_0
  6
CONTINUOUS
 62
    3
 10
291.53887600000002
 20
131.42487399999999
 11
291.68887599999999
 21
131.27487400000001
  0
LINE
  8
_0-0_0
  6
CONTINUOUS
 62
    3
 10
291.68887599999999
 20
131.57487399999999
 11
291.53887600000002
 21
131.42487399999999
  0
LINE
  8
_0-0_0
  6
CENTER
 62
    7
 10
292.43887599999999
 20
143.92487399999999
 11
290.93887599999999
 21
143.92487399999999
  0
LINE
  8
_0-0_0
  6
CENTER
 62
    7
 10
292.43887599999999
 20
141.92487399999999
 11
290.93887599999999
 21
141.92487399999999
  0
LINE
  8
_0-0_0
  6
CENTER
 62
    7
 10
292.43887599999999
 20
145.92487399999999
 11
290.93887599999999
 21
145.92487399999999
  0
INSERT
  2
-088-_D95
  8
_0-0_0
 10
0
 20
0
 41
1
 42
1
 50
0
  0
INSERT
  2
-089-_D96
  8
_0-0_0
 10
0
 20
0
 41
1
 42
1
 50
0
  0
INSERT
  2
-090-_D97
  8
_0-0_0
 10
0
 20
0
 41
1
 42
1
 50
0
  0
INSERT
  2
-091-_D98
  8
_0-0_0
 10
0
 20
0
 41
1
 42
1
 50
0
  0
TEXT
  8
_0-0_0
 62
    7
 10
307.86450200000002
 20
164.30973800000001
 40
3.2200000000000002
 41
0.678995
 50
0
  1
t;3.0 巾；30　
  0
TEXT
  8
_0-0_0
 62
    7
 10
308.31280500000003
 20
161.08973700000001
 40
3.2200000000000002
 41
0.672878
 50
0
  1
ブラケットL=40
  0
LINE
  8
_0-0_0
  6
CONTINUOUS
 62
    7
 10
291.409538
 20
151.21628899999999
 11
306.248738
 21
159.963626
  0
LINE
  8
_0-0_0
  6
CONTINUOUS
 62
    7
 10
291.409538
 20
151.21628899999999
 11
293.99393900000001
 21
152.73973000000001
  0
LINE
  8
_0-0_0
  6
CONTINUOUS
 62
    7
 10
291.409538
 20
151.21628899999999
 11
293.51158299999997
 21
153.35671199999999
  0
LINE
  8
_0-0_0
  6
CONTINUOUS
 62
    7
 10
291.409538
 20
151.21628899999999
 11
294.30017400000003
 21
152.01892799999999
  0
LINE
  8
_0-0_0
  6
CONTINUOUS
 62
    7
 10
306.248738
 20
159.963626
 11
330.88752799999997
 21
159.963626
  0
LINE
  8
_0-0_0
  6
CENTER
 62
    7
 10
263.15598799999998
 20
131.42487399999999
 11
335.67778900000002
 21
131.42487399999999
  0
LINE
  8
_0-0_0
  6
CONTINUOUS
 62
    7
 10
263.15598799999998
 20
130.17487399999999
 11
280.35227400000002
 21
130.17487399999999
  0
LINE
  8
_0-0_0
  6
PHANTOM
 62
    7
 10
263.15598799999998
 20
131.80820800000001
 11
280.35227400000002
 21
131.80820800000001
  0
LINE
  8
_0-0_0
  6
PHANTOM
 62
    7
 10
263.15598799999998
 20
131.14154099999999
 11
280.35227400000002
 21
131.14154099999999
  0
LINE
  8
_0-0_0
  6
CONTINUOUS
 62
    7
 10
263.15598799999998
 20
132.67487399999999
 11
280.35227400000002
 21
132.67487399999999
  0
LINE
  8
_0-0_0
  6
CONTINUOUS
 62
    3
 10
263.15598799999998
 20
135.42487399999999
 11
276.06387599999999
 21
135.42487399999999
  0
LINE
  8
_0-0_0
  6
CONTINUOUS
 62
    3
 10
263.15598799999998
 20
127.424874
 11
291.43887599999999
 21
127.424874
  0
LINE
  8
_0-0_0
  6
CONTINUOUS
 62
    4
 10
292.43887599999999
 20
106.161044
 11
292.43887599999999
 21
164.67261999999999
  0
TEXT
  8
_0-0_0
 62
    7
 10
298.45846599999999
 20
135.87132299999999
 40
3.2200000000000002
 41
0.6747999999999999
 50
0
  1
(オプション）
  0
TEXT
  8
_0-0_0
 62
    7
 10
298.45846599999999
 20
139.09132399999999
 40
3.2200000000000002
 41
0.6801239999999999
 50
0
  1
SUS M8オ-ルアンカ-
  0
LINE
  8
_0-0_0
  6
CONTINUOUS
 62
    5
 10
293.46072299999997
 20
145.847556
 11
298.736132
 21
135.111637
  0
LINE
  8
_0-0_0
  6
CONTINUOUS
 62
    5
 10
293.46072299999997
 20
145.847556
 11
294.041811
 21
142.904371
  0
LINE
  8
_0-0_0
  6
CONTINUOUS
 62
    5
 10
293.46072299999997
 20
145.847556
 11
295.43555300000003
 21
143.58922699999999
  0
LINE
  8
_0-0_0
  6
CONTINUOUS
 62
    5
 10
298.736132
 20
135.111637
 11
328.20613200000003
 21
135.111637
  0
LINE
  8
_0-0_0
  6
CONTINUOUS
 62
    7
 10
290.93887599999999
 20
145.42487399999999
 11
299.223276
 21
145.42487399999999
  0
LINE
  8
_0-0_0
  6
CONTINUOUS
 62
    7
 10
307.18176199999999
 20
149.45263800000001
 11
308.68084800000003
 21
149.504988
  0
LINE
  8
_0-0_0
  6
CONTINUOUS
 62
    7
 10
299.28435000000002
 20
147.67594
 11
310.24090799999999
 21
148.05855199999999
  0
LINE
  8
_0-0_0
  6
CONTINUOUS
 62
    7
 10
308.672123
 20
149.75483500000001
 11
310.17983299999997
 21
149.80748600000001
  0
LINE
  8
_0-0_0
  6
CONTINUOUS
 62
    7
 10
310.24017900000001
 20
148.07940500000001
 11
310.17983299999997
 21
149.80748600000001
  0
LINE
  8
_0-0_0
  6
CONTINUOUS
 62
    7
 10
308.672123
 20
149.75483500000001
 11
308.73295300000001
 21
148.012888
  0
LINE
  8
_0-0_0
  6
CONTINUOUS
 62
    7
 10
301.18541699999997
 20
149.24324100000001
 11
302.68450300000001
 21
149.295591
  0
LINE
  8
_0-0_0
  6
CONTINUOUS
 62
    7
 10
302.67577799999998
 20
149.54543799999999
 11
304.17486400000001
 21
149.59778800000001
  0
LINE
  8
_0-0_0
  6
CONTINUOUS
 62
    7
 10
305.67395099999999
 20
149.650137
 11
307.17303700000002
 21
149.70248599999999
  0
LINE
  8
_0-0_0
  6
CONTINUOUS
 62
    7
 10
304.18358899999998
 20
149.34793999999999
 11
305.68267600000001
 21
149.40028899999999
  0
LINE
  8
_0-0_0
  6
CONTINUOUS
 62
    7
 10
307.17303700000002
 20
149.70248599999999
 11
307.23386699999998
 21
147.96053900000001
  0
LINE
  8
_0-0_0
  6
CONTINUOUS
 62
    7
 10
305.67395099999999
 20
149.650137
 11
305.734781
 21
147.90818999999999
  0
LINE
  8
_0-0_0
  6
CONTINUOUS
 62
    7
 10
304.17486400000001
 20
149.59778800000001
 11
304.23569500000002
 21
147.855841
  0
LINE
  8
_0-0_0
  6
CONTINUOUS
 62
    7
 10
302.67577799999998
 20
149.54543799999999
 11
302.73660799999999
 21
147.80349100000001
  0
LINE
  8
_0-0_0
  6
CONTINUOUS
 62
    7
 10
301.176692
 20
149.493089
 11
301.23752200000001
 21
147.75114199999999
  0
LINE
  8
_0-0_0
  6
CONTINUOUS
 62
    7
 10
299.67760600000003
 20
149.44074000000001
 11
299.73847000000001
 21
147.69780600000001
  0
LINE
  8
_0-0_0
  6
CONTINUOUS
 62
    7
 10
299.223276
 20
147.17487399999999
 11
299.223276
 21
147.67487399999999
  0
LINE
  8
_0-0_0
  6
CONTINUOUS
 62
    7
 10
299.223276
 20
149.42487399999999
 11
301.176692
 21
149.493089
  0
ARC
  8
_0-0_0
  6
CONTINUOUS
 62
    7
 10
309.30619799999999
 20
144.15828200000001
 40
3.9011469999999999
 50
56.860459999999996
 51
84.223905999999999
  0
LINE
  8
_0-0_0
  6
CONTINUOUS
 62
    7
 10
307.18176199999999
 20
145.39711
 11
308.68084800000003
 21
145.34476100000001
  0
LINE
  8
_0-0_0
  6
CONTINUOUS
 62
    7
 10
299.28435000000002
 20
147.17380800000001
 11
310.24090799999999
 21
146.79119700000001
  0
LINE
  8
_0-0_0
  6
CONTINUOUS
 62
    7
 10
308.672123
 20
145.09491299999999
 11
310.17983299999997
 21
145.04226299999999
  0
LINE
  8
_0-0_0
  6
CONTINUOUS
 62
    7
 10
310.24017900000001
 20
146.77034399999999
 11
310.17983299999997
 21
145.04226299999999
  0
LINE
  8
_0-0_0
  6
CONTINUOUS
 62
    7
 10
308.672123
 20
145.09491299999999
 11
308.73295300000001
 21
146.83686
  0
LINE
  8
_0-0_0
  6
CONTINUOUS
 62
    7
 10
301.18541699999997
 20
145.60650699999999
 11
302.68450300000001
 21
145.554158
  0
LINE
  8
_0-0_0
  6
CONTINUOUS
 62
    7
 10
302.67577799999998
 20
145.30430999999999
 11
304.17486400000001
 21
145.25196099999999
  0
LINE
  8
_0-0_0
  6
CONTINUOUS
 62
    7
 10
305.67395099999999
 20
145.199612
 11
307.17303700000002
 21
145.14726300000001
  0
LINE
  8
_0-0_0
  6
CONTINUOUS
 62
    7
 10
304.18358899999998
 20
145.50180900000001
 11
305.68267600000001
 21
145.44945999999999
  0
LINE
  8
_0-0_0
  6
CONTINUOUS
 62
    7
 10
307.17303700000002
 20
145.14726300000001
 11
307.23386699999998
 21
146.88920999999999
  0
LINE
  8
_0-0_0
  6
CONTINUOUS
 62
    7
 10
305.67395099999999
 20
145.199612
 11
305.734781
 21
146.94155900000001
  0
LINE
  8
_0-0_0
  6
CONTINUOUS
 62
    7
 10
304.17486400000001
 20
145.25196099999999
 11
304.23569500000002
 21
146.993908
  0
LINE
  8
_0-0_0
  6
CONTINUOUS
 62
    7
 10
302.67577799999998
 20
145.30430999999999
 11
302.73660799999999
 21
147.046257
  0
LINE
  8
_0-0_0
  6
CONTINUOUS
 62
    7
 10
301.176692
 20
145.35666000000001
 11
301.23752200000001
 21
147.09860699999999
  0
LINE
  8
_0-0_0
  6
CONTINUOUS
 62
    7
 10
299.67760600000003
 20
145.409009
 11
299.73847000000001
 21
147.15194199999999
  0
LINE
  8
_0-0_0
  6
DOT_20
 62
    7
 10
299.223276
 20
147.67487399999999
 11
299.223276
 21
147.17487399999999
  0
LINE
  8
_0-0_0
  6
CONTINUOUS
 62
    7
 10
299.223276
 20
145.42487399999999
 11
301.176692
 21
145.35666000000001
  0
ARC
  8
_0-0_0
  6
CONTINUOUS
 62
    7
 10
309.30619799999999
 20
150.69146699999999
 40
3.9011469999999999
 50
275.776094
 51
303.13954000000001
  0
LINE
  8
_0-0_0
  6
CENTER
 62
    7
 10
282.49723299999999
 20
147.42487399999999
 11
312.81938300000002
 21
147.42487399999999
  0
LINE
  8
_0-0_0
  6
CONTINUOUS
 62
    7
 10
290.93887599999999
 20
149.42487399999999
 11
299.223276
 21
149.42487399999999
  0
LINE
  8
_0-0_0
  6
CONTINUOUS
 62
    7
 10
289.93887599999999
 20
143.17487399999999
 11
289.93887599999999
 21
151.67487399999999
  0
LINE
  8
_0-0_0
  6
CONTINUOUS
 62
    7
 10
289.93887599999999
 20
151.17487399999999
 11
286.04971999999998
 21
151.17487399999999
  0
ARC
  8
_0-0_0
  6
CONTINUOUS
 62
    7
 10
287.08895100000001
 20
150.23668000000001
 40
1.400074
 50
137.92498000000001
 51
222.07501999999997
  0
LINE
  8
_0-0_0
  6
CONTINUOUS
 62
    7
 10
288.93887599999999
 20
149.298486
 11
286.04971999999998
 21
149.298486
  0
ARC
  8
_0-0_0
  6
CONTINUOUS
 62
    7
 10
290.73347999999999
 20
147.42487399999999
 40
5.0446030000000004
 50
158.19745599999999
 51
201.80254400000001
  0
LINE
  8
_0-0_0
  6
CONTINUOUS
 62
    7
 10
288.93887599999999
 20
145.55126300000001
 11
286.04971999999998
 21
145.55126300000001
  0
LINE
  8
_0-0_0
  6
CONTINUOUS
 62
    7
 10
285.68887599999999
 20
144.613069
 11
285.68887599999999
 21
150.23668000000001
  0
ARC
  8
_0-0_0
  6
CONTINUOUS
 62
    7
 10
287.08895100000001
 20
144.613069
 40
1.400074
 50
137.92498000000001
 51
222.07501999999997
  0
LINE
  8
_0-0_0
  6
CONTINUOUS
 62
    7
 10
289.93887599999999
 20
143.67487399999999
 11
286.04971999999998
 21
143.67487399999999
  0
LINE
  8
_0-0_0
  6
CONTINUOUS
 62
    7
 10
288.93887599999999
 20
143.67487399999999
 11
288.93887599999999
 21
151.17487399999999
  0
LINE
  8
_0-0_0
  6
CONTINUOUS
 62
    7
 10
288.93887599999999
 20
146.70245700000001
 11
289.93887599999999
 21
147.826427
  0
LINE
  8
_0-0_0
  6
CONTINUOUS
 62
    7
 10
288.93887599999999
 20
147.12252599999999
 11
289.93887599999999
 21
148.24649600000001
  0
LINE
  8
_0-0_0
  6
CONTINUOUS
 62
    7
 10
285.68887599999999
 20
149.11237399999999
 11
284.22637600000002
 21
149.11237399999999
  0
LINE
  8
_0-0_0
  6
CONTINUOUS
 62
    7
 10
285.68887599999999
 20
149.42487399999999
 11
284.53887600000002
 21
149.42487399999999
  0
LINE
  8
_0-0_0
  6
CONTINUOUS
 62
    7
 10
285.68887599999999
 20
145.42487399999999
 11
284.53887600000002
 21
145.42487399999999
  0
LINE
  8
_0-0_0
  6
CONTINUOUS
 62
    7
 10
285.68887599999999
 20
145.73737399999999
 11
284.22637600000002
 21
145.73737399999999
  0
LINE
  8
_0-0_0
  6
CONTINUOUS
 62
    7
 10
284.53887600000002
 20
145.42487399999999
 11
284.53887600000002
 21
149.42487399999999
  0
LINE
  8
_0-0_0
  6
CONTINUOUS
 62
    7
 10
283.93887599999999
 20
146.02487400000001
 11
283.93887599999999
 21
148.82487399999999
  0
LINE
  8
_0-0_0
  6
CONTINUOUS
 62
    7
 10
284.53887600000002
 20
145.42487399999999
 11
283.93887599999999
 21
146.02487400000001
  0
LINE
  8
_0-0_0
  6
CONTINUOUS
 62
    7
 10
284.53887600000002
 20
149.42487399999999
 11
283.93887599999999
 21
148.82487399999999
  0
POINT
  8
_0-0_0
 62
    7
 10
293.43887599999999
 20
147.42487399999999
  0
POINT
  8
_0-0_0
 62
    7
 10
292.18887599999999
 20
147.42487399999999
  0
LINE
  8
_0-0_0
  6
CONTINUOUS
 62
    7
 10
289.93887599999999
 20
151.67487399999999
 11
290.93887599999999
 21
151.67487399999999
  0
LINE
  8
_0-0_0
  6
CONTINUOUS
 62
    7
 10
289.93887599999999
 20
143.17487399999999
 11
290.93887599999999
 21
143.17487399999999
  0
LINE
  8
_0-0_0
  6
CONTINUOUS
 62
    7
 10
290.93887599999999
 20
151.67487399999999
 11
290.93887599999999
 21
143.17487399999999
  0
INSERT
  2
-092-_D99
  8
_0-0_0
 10
0
 20
0
 41
1
 42
1
 50
0
  0
INSERT
  2
-093-_D100
  8
_0-0_0
 10
0
 20
0
 41
1
 42
1
 50
0
  0
LINE
  8
_0-0_0
  6
CONTINUOUS
 62
    3
 10
290.93887599999999
 20
137.42487399999999
 11
290.93887599999999
 21
155.42487399999999
  0
LINE
  8
_0-0_0
  6
CONTINUOUS
 62
    3
 10
292.43887599999999
 20
137.42487399999999
 11
292.43887599999999
 21
155.42487399999999
  0
LINE
  8
_0-0_0
  6
CONTINUOUS
 62
    3
 10
292.43887599999999
 20
155.42487399999999
 11
290.93887599999999
 21
155.42487399999999
  0
ARC
  8
_0-0_0
  6
CONTINUOUS
 62
    3
 10
290.43887599999999
 20
137.42487399999999
 40
2
 50
270
 51
0
  0
ARC
  8
_0-0_0
  6
CONTINUOUS
 62
    3
 10
290.43887599999999
 20
137.42487399999999
 40
0.5
 50
270
 51
0
  0
LINE
  8
_0-0_0
  6
CONTINUOUS
 62
    3
 10
290.43887599999999
 20
136.92487399999999
 11
276.43887599999999
 21
136.92487399999999
  0
LINE
  8
_0-0_0
  6
CONTINUOUS
 62
    3
 10
290.43887599999999
 20
135.42487399999999
 11
276.43887599999999
 21
135.42487399999999
  0
LINE
  8
_0-0_0
  6
CONTINUOUS
 62
    3
 10
276.43887599999999
 20
135.42487399999999
 11
276.43887599999999
 21
136.92487399999999
  0
LINE
  8
_0-0_0
  6
CENTER
 62
    7
 10
278.93887599999999
 20
135.42487399999999
 11
278.93887599999999
 21
136.92487399999999
  0
LINE
  8
_0-0_0
  6
CENTER
 62
    7
 10
279.43887599999999
 20
135.42487399999999
 11
279.43887599999999
 21
136.92487399999999
  0
LINE
  8
_0-0_0
  6
CENTER
 62
    7
 10
279.93887599999999
 20
135.42487399999999
 11
279.93887599999999
 21
136.92487399999999
  0
LINE
  8
_0-0_0
  6
CENTER
 62
    7
 10
280.43887599999999
 20
135.42487399999999
 11
280.43887599999999
 21
136.92487399999999
  0
LINE
  8
_0-0_0
  6
CENTER
 62
    7
 10
280.93887599999999
 20
135.42487399999999
 11
280.93887599999999
 21
136.92487399999999
  0
LINE
  8
_0-0_0
  6
CENTER
 62
    7
 10
281.43887599999999
 20
135.42487399999999
 11
281.43887599999999
 21
136.92487399999999
  0
LINE
  8
_0-0_0
  6
CENTER
 62
    7
 10
282.43887599999999
 20
135.42487399999999
 11
282.43887599999999
 21
136.92487399999999
  0
LINE
  8
_0-0_0
  6
CENTER
 62
    7
 10
282.93887599999999
 20
135.42487399999999
 11
282.93887599999999
 21
136.92487399999999
  0
LINE
  8
_0-0_0
  6
CENTER
 62
    7
 10
283.43887599999999
 20
135.42487399999999
 11
283.43887599999999
 21
136.92487399999999
  0
LINE
  8
_0-0_0
  6
CENTER
 62
    7
 10
284.43887599999999
 20
135.42487399999999
 11
284.43887599999999
 21
136.92487399999999
  0
LINE
  8
_0-0_0
  6
CENTER
 62
    7
 10
284.93887599999999
 20
135.42487399999999
 11
284.93887599999999
 21
136.92487399999999
  0
LINE
  8
_0-0_0
  6
CENTER
 62
    7
 10
285.43887599999999
 20
135.42487399999999
 11
285.43887599999999
 21
136.92487399999999
  0
LINE
  8
_0-0_0
  6
CENTER
 62
    7
 10
286.43887599999999
 20
135.42487399999999
 11
286.43887599999999
 21
136.92487399999999
  0
LINE
  8
_0-0_0
  6
CENTER
 62
    7
 10
286.93887599999999
 20
135.42487399999999
 11
286.93887599999999
 21
136.92487399999999
  0
LINE
  8
_0-0_0
  6
CENTER
 62
    7
 10
287.43887599999999
 20
135.42487399999999
 11
287.43887599999999
 21
136.92487399999999
  0
LINE
  8
_0-0_0
  6
CENTER
 62
    7
 10
287.93887599999999
 20
135.42487399999999
 11
287.93887599999999
 21
136.92487399999999
  0
LINE
  8
_0-0_0
  6
CENTER
 62
    7
 10
288.43887599999999
 20
135.42487399999999
 11
288.43887599999999
 21
136.92487399999999
  0
LINE
  8
_0-0_0
  6
CENTER
 62
    7
 10
288.93887599999999
 20
135.42487399999999
 11
288.93887599999999
 21
136.92487399999999
  0
LINE
  8
_0-0_0
  6
PHANTOM
 62
    7
 10
292.43887599999999
 20
142.92487399999999
 11
290.93887599999999
 21
142.92487399999999
  0
LINE
  8
_0-0_0
  6
PHANTOM
 62
    7
 10
292.43887599999999
 20
143.42487399999999
 11
290.93887599999999
 21
143.42487399999999
  0
LINE
  8
_0-0_0
  6
PHANTOM
 62
    7
 10
292.43887599999999
 20
143.92487399999999
 11
290.93887599999999
 21
143.92487399999999
  0
LINE
  8
_0-0_0
  6
PHANTOM
 62
    7
 10
292.43887599999999
 20
144.42487399999999
 11
290.93887599999999
 21
144.42487399999999
  0
LINE
  8
_0-0_0
  6
PHANTOM
 62
    7
 10
292.43887599999999
 20
144.92487399999999
 11
290.93887599999999
 21
144.92487399999999
  0
LINE
  8
_0-0_0
  6
PHANTOM
 62
    7
 10
292.43887599999999
 20
145.42487399999999
 11
290.93887599999999
 21
145.42487399999999
  0
LINE
  8
_0-0_0
  6
PHANTOM
 62
    7
 10
292.43887599999999
 20
145.92487399999999
 11
290.93887599999999
 21
145.92487399999999
  0
LINE
  8
_0-0_0
  6
PHANTOM
 62
    7
 10
292.43887599999999
 20
146.42487399999999
 11
290.93887599999999
 21
146.42487399999999
  0
LINE
  8
_0-0_0
  6
PHANTOM
 62
    7
 10
292.43887599999999
 20
146.92487399999999
 11
290.93887599999999
 21
146.92487399999999
  0
LINE
  8
_0-0_0
  6
PHANTOM
 62
    7
 10
292.43887599999999
 20
147.42487399999999
 11
290.93887599999999
 21
147.42487399999999
  0
LINE
  8
_0-0_0
  6
PHANTOM
 62
    7
 10
292.43887599999999
 20
147.92487399999999
 11
290.93887599999999
 21
147.92487399999999
  0
LINE
  8
_0-0_0
  6
PHANTOM
 62
    7
 10
292.43887599999999
 20
148.42487399999999
 11
290.93887599999999
 21
148.42487399999999
  0
LINE
  8
_0-0_0
  6
PHANTOM
 62
    7
 10
292.43887599999999
 20
148.92487399999999
 11
290.93887599999999
 21
148.92487399999999
  0
LINE
  8
_0-0_0
  6
PHANTOM
 62
    7
 10
292.43887599999999
 20
149.42487399999999
 11
290.93887599999999
 21
149.42487399999999
  0
LINE
  8
_0-0_0
  6
PHANTOM
 62
    7
 10
292.43887599999999
 20
149.92487399999999
 11
290.93887599999999
 21
149.92487399999999
  0
LINE
  8
_0-0_0
  6
PHANTOM
 62
    7
 10
292.43887599999999
 20
150.42487399999999
 11
290.93887599999999
 21
150.42487399999999
  0
LINE
  8
_0-0_0
  6
PHANTOM
 62
    7
 10
292.43887599999999
 20
150.92487399999999
 11
290.93887599999999
 21
150.92487399999999
  0
LINE
  8
_0-0_0
  6
PHANTOM
 62
    7
 10
292.43887599999999
 20
151.42487399999999
 11
290.93887599999999
 21
151.42487399999999
  0
LINE
  8
_0-0_0
  6
PHANTOM
 62
    7
 10
292.43887599999999
 20
151.92487399999999
 11
290.93887599999999
 21
151.92487399999999
  0
LINE
  8
_0-0_0
  6
PHANTOM
 62
    7
 10
292.43887599999999
 20
152.42487399999999
 11
290.93887599999999
 21
152.42487399999999
  0
LINE
  8
_0-0_0
  6
PHANTOM
 62
    7
 10
292.43887599999999
 20
152.92487399999999
 11
290.93887599999999
 21
152.92487399999999
  0
LINE
  8
_0-0_0
  6
CENTER
 62
    7
 10
281.93887599999999
 20
135.42487399999999
 11
281.93887599999999
 21
136.92487399999999
  0
LINE
  8
_0-0_0
  6
CENTER
 62
    7
 10
283.93887599999999
 20
135.42487399999999
 11
283.93887599999999
 21
136.92487399999999
  0
LINE
  8
_0-0_0
  6
CENTER
 62
    7
 10
285.93887599999999
 20
135.42487399999999
 11
285.93887599999999
 21
136.92487399999999
  0
INSERT
  2
-094-_D101
  8
_0-0_0
 10
0
 20
0
 41
1
 42
1
 50
0
  0
ENDBLK
  0
BLOCK
  2
-096-BLKF0103
 70
   64
 10
0
 20
0
 30
0
  0
TEXT
  8
_0-0_0
 62
    7
 10
56.757537999999997
 20
127.616158
 40
3.2200000000000002
 41
0.65942
 50
0
  1
 M8
  0
TEXT
  8
_0-0_0
 62
    7
 10
49.022525999999999
 20
124.396156
 40
3.2200000000000002
 41
0.678261
 50
0
  1
グリップアンカーＳt
  0
TEXT
  8
_0-0_0
 62
    7
 10
55.652526999999999
 20
121.176163
 40
3.2200000000000002
 41
0.6661489999999998
 50
0
  1
(標準）
  0
LINE
  8
_0-0_0
  6
CONTINUOUS
 62
    7
 10
79.631079
 20
142.841836
 11
71.653129000000007
 21
119.91458299999999
  0
LINE
  8
_0-0_0
  6
CONTINUOUS
 62
    7
 10
79.631079
 20
142.841836
 11
78.545564999999996
 21
140.04511299999999
  0
LINE
  8
_0-0_0
  6
CONTINUOUS
 62
    7
 10
79.631079
 20
142.841836
 11
77.858707999999993
 21
140.42135999999999
  0
LINE
  8
_0-0_0
  6
CONTINUOUS
 62
    7
 10
79.631079
 20
142.841836
 11
79.306398000000002
 21
139.85945699999999
  0
LINE
  8
_0-0_0
  6
CONTINUOUS
 62
    7
 10
71.653129000000007
 20
119.91458299999999
 11
46.382978999999999
 21
119.91458299999999
  0
ENDBLK
  0
BLOCK
  2
-097-BLKF0104
 70
   64
 10
0
 20
0
 30
0
  0
TEXT
  8
_0-0_0
 62
    7
 10
60.179423999999997
 20
158.65374800000001
 40
3.2200000000000002
 41
0.672878
 50
0
  1
四角 SUS M8×16
  0
LINE
  8
_0-0_0
  6
CONTINUOUS
 62
    7
 10
110.029366
 20
139.052089
 11
87.565534999999997
 21
157.65372300000001
  0
LINE
  8
_0-0_0
  6
CONTINUOUS
 62
    7
 10
110.029366
 20
139.052089
 11
107.718733
 21
140.96545599999999
  0
LINE
  8
_0-0_0
  6
CONTINUOUS
 62
    7
 10
110.029366
 20
139.052089
 11
108.292681
 21
141.49829600000001
  0
LINE
  8
_0-0_0
  6
CONTINUOUS
 62
    7
 10
110.029366
 20
139.052089
 11
107.302249
 21
140.30222499999999
  0
LINE
  8
_0-0_0
  6
CONTINUOUS
 62
    7
 10
87.565534999999997
 20
157.65372300000001
 11
58.956322
 21
157.65372300000001
  0
ENDBLK
  0
BLOCK
  2
-098-BLKF0105
 70
   64
 10
0
 20
0
 30
0
  0
LINE
  8
_0-0_0
  6
CONTINUOUS
 62
    5
 10
87.684798000000001
 20
151.42487399999999
 11
56.548042000000002
 21
151.42487399999999
  0
LINE
  8
_0-0_0
  6
CONTINUOUS
 62
    5
 10
65.185201000000006
 20
143.92487399999999
 11
56.548042000000002
 21
143.92487399999999
  0
LINE
  8
_0-0_0
  6
CONTINUOUS
 62
    5
 10
57.548042000000002
 20
151.42487399999999
 11
57.548042000000002
 21
143.92487399999999
  0
LINE
  8
_0-0_0
  6
CONTINUOUS
 62
    5
 10
57.548042000000002
 20
151.42487399999999
 11
57.548042000000002
 21
150.42487399999999
  0
CIRCLE
  8
_0-0_0
  6
CONTINUOUS
 62
    5
 10
57.548042000000002
 20
151.42487399999999
 40
0.5
  0
CIRCLE
  8
_0-0_0
  6
CONTINUOUS
 62
    5
 10
57.548042000000002
 20
151.42487399999999
 40
0.25
  0
LINE
  8
_0-0_0
  6
CONTINUOUS
 62
    5
 10
57.548042000000002
 20
143.92487399999999
 11
57.548042000000002
 21
144.92487399999999
  0
CIRCLE
  8
_0-0_0
  6
CONTINUOUS
 62
    5
 10
57.548042000000002
 20
143.92487399999999
 40
0.5
  0
CIRCLE
  8
_0-0_0
  6
CONTINUOUS
 62
    5
 10
57.548042000000002
 20
143.92487399999999
 40
0.25
  0
TEXT
  8
_0-0_0
 62
    7
 10
56.548045999999999
 20
145.594864
 40
3.2200000000000002
 41
0.645963
 50
90
  1
15
  0
ENDBLK
  0
BLOCK
  2
-099-BLKF0106
 70
   64
 10
0
 20
0
 30
0
  0
LINE
  8
_0-0_0
  6
CONTINUOUS
 62
    5
 10
88.184798000000001
 20
135.42487399999999
 11
56.548042000000002
 21
135.42487399999999
  0
LINE
  8
_0-0_0
  6
CONTINUOUS
 62
    5
 10
57.548042000000002
 20
143.92487399999999
 11
57.548042000000002
 21
135.42487399999999
  0
LINE
  8
_0-0_0
  6
CONTINUOUS
 62
    5
 10
57.548042000000002
 20
143.92487399999999
 11
57.548042000000002
 21
142.92487399999999
  0
CIRCLE
  8
_0-0_0
  6
CONTINUOUS
 62
    5
 10
57.548042000000002
 20
143.92487399999999
 40
0.5
  0
CIRCLE
  8
_0-0_0
  6
CONTINUOUS
 62
    5
 10
57.548042000000002
 20
143.92487399999999
 40
0.25
  0
LINE
  8
_0-0_0
  6
CONTINUOUS
 62
    5
 10
57.548042000000002
 20
135.42487399999999
 11
57.548042000000002
 21
136.42487399999999
  0
CIRCLE
  8
_0-0_0
  6
CONTINUOUS
 62
    5
 10
57.548042000000002
 20
135.42487399999999
 40
0.5
  0
CIRCLE
  8
_0-0_0
  6
CONTINUOUS
 62
    5
 10
57.548042000000002
 20
135.42487399999999
 40
0.25
  0
TEXT
  8
_0-0_0
 62
    7
 10
56.548045999999999
 20
137.594864
 40
3.2200000000000002
 41
0.645963
 50
90
  1
17
  0
ENDBLK
  0
BLOCK
  2
-100-BLKF0107
 70
   64
 10
0
 20
0
 30
0
  0
LINE
  8
_0-0_0
  6
CONTINUOUS
 62
    5
 10
54.548042000000002
 20
151.42487399999999
 11
45.726864999999997
 21
151.42487399999999
  0
LINE
  8
_0-0_0
  6
CONTINUOUS
 62
    5
 10
54.548042000000002
 20
135.42487399999999
 11
45.726864999999997
 21
135.42487399999999
  0
LINE
  8
_0-0_0
  6
CONTINUOUS
 62
    5
 10
46.726864999999997
 20
151.42487399999999
 11
46.726864999999997
 21
135.42487399999999
  0
LINE
  8
_0-0_0
  6
CONTINUOUS
 62
    5
 10
46.726864999999997
 20
151.42487399999999
 11
46.726864999999997
 21
150.42487399999999
  0
CIRCLE
  8
_0-0_0
  6
CONTINUOUS
 62
    5
 10
46.726864999999997
 20
151.42487399999999
 40
0.5
  0
CIRCLE
  8
_0-0_0
  6
CONTINUOUS
 62
    5
 10
46.726864999999997
 20
151.42487399999999
 40
0.25
  0
LINE
  8
_0-0_0
  6
CONTINUOUS
 62
    5
 10
46.726864999999997
 20
135.42487399999999
 11
46.726864999999997
 21
136.42487399999999
  0
CIRCLE
  8
_0-0_0
  6
CONTINUOUS
 62
    5
 10
46.726864999999997
 20
135.42487399999999
 40
0.5
  0
CIRCLE
  8
_0-0_0
  6
CONTINUOUS
 62
    5
 10
46.726864999999997
 20
135.42487399999999
 40
0.25
  0
TEXT
  8
_0-0_0
 62
    7
 10
45.726852000000001
 20
141.344864
 40
3.2200000000000002
 41
0.645963
 50
90
  1
32
  0
ENDBLK
  0
BLOCK
  2
-101-BLKF0108
 70
   64
 10
0
 20
0
 30
0
  0
LINE
  8
_0-0_0
  6
CONTINUOUS
 62
    5
 10
88.684798000000001
 20
146.612077
 11
88.684798000000001
 21
154.087851
  0
LINE
  8
_0-0_0
  6
CONTINUOUS
 62
    5
 10
114.184798
 20
141.91332
 11
114.184798
 21
154.087851
  0
LINE
  8
_0-0_0
  6
CONTINUOUS
 62
    5
 10
88.684798000000001
 20
153.087851
 11
114.184798
 21
153.087851
  0
LINE
  8
_0-0_0
  6
CONTINUOUS
 62
    5
 10
88.684798000000001
 20
153.087851
 11
89.684798000000001
 21
153.087851
  0
CIRCLE
  8
_0-0_0
  6
CONTINUOUS
 62
    5
 10
88.684798000000001
 20
153.087851
 40
0.5
  0
CIRCLE
  8
_0-0_0
  6
CONTINUOUS
 62
    5
 10
88.684798000000001
 20
153.087851
 40
0.25
  0
LINE
  8
_0-0_0
  6
CONTINUOUS
 62
    5
 10
114.184798
 20
153.087851
 11
112.83479800000001
 21
153.087851
  0
CIRCLE
  8
_0-0_0
  6
CONTINUOUS
 62
    5
 10
114.184798
 20
153.087851
 40
0.5
  0
CIRCLE
  8
_0-0_0
  6
CONTINUOUS
 62
    5
 10
114.184798
 20
153.087851
 40
0.25
  0
TEXT
  8
_0-0_0
 62
    7
 10
99.017280999999997
 20
154.08786000000001
 40
3.2200000000000002
 41
0.6661489999999998
 50
0
  1
51
  0
ENDBLK
  0
BLOCK
  2
-102-BLKF0109
 70
   64
 10
0
 20
0
 30
0
  0
LINE
  8
_0-0_0
  6
CONTINUOUS
 62
    5
 10
88.684798000000001
 20
155.087851
 11
88.684798000000001
 21
160.499629
  0
LINE
  8
_0-0_0
  6
CONTINUOUS
 62
    5
 10
122.684798
 20
155.087851
 11
122.684798
 21
160.499629
  0
LINE
  8
_0-0_0
  6
CONTINUOUS
 62
    5
 10
88.684798000000001
 20
159.499629
 11
122.684798
 21
159.499629
  0
LINE
  8
_0-0_0
  6
CONTINUOUS
 62
    5
 10
88.684798000000001
 20
159.499629
 11
89.684798000000001
 21
159.499629
  0
CIRCLE
  8
_0-0_0
  6
CONTINUOUS
 62
    5
 10
88.684798000000001
 20
159.499629
 40
0.5
  0
CIRCLE
  8
_0-0_0
  6
CONTINUOUS
 62
    5
 10
88.684798000000001
 20
159.499629
 40
0.25
  0
LINE
  8
_0-0_0
  6
CONTINUOUS
 62
    5
 10
122.684798
 20
159.499629
 11
116.684798
 21
159.499629
  0
TEXT
  8
_0-0_0
 62
    7
 10
103.64795700000001
 20
160.49963399999999
 40
3.2200000000000002
 41
0.645963
 50
0
  1
68
  0
ENDBLK
  0
BLOCK
  2
-103-BLKF0110
 70
   64
 10
0
 20
0
 30
0
  0
LINE
  8
_0-0_0
  6
CONTINUOUS
 62
    5
 10
103.684798
 20
127.924874
 11
103.684798
 21
109.936415
  0
LINE
  8
_0-0_0
  6
CONTINUOUS
 62
    5
 10
123.684798
 20
127.924874
 11
123.684798
 21
109.936415
  0
LINE
  8
_0-0_0
  6
CONTINUOUS
 62
    5
 10
103.684798
 20
110.936415
 11
123.684798
 21
110.936415
  0
LINE
  8
_0-0_0
  6
CONTINUOUS
 62
    5
 10
103.684798
 20
110.936415
 11
104.684798
 21
110.936415
  0
CIRCLE
  8
_0-0_0
  6
CONTINUOUS
 62
    5
 10
103.684798
 20
110.936415
 40
0.5
  0
CIRCLE
  8
_0-0_0
  6
CONTINUOUS
 62
    5
 10
103.684798
 20
110.936415
 40
0.25
  0
LINE
  8
_0-0_0
  6
CONTINUOUS
 62
    5
 10
123.684798
 20
110.936415
 11
122.684798
 21
110.936415
  0
CIRCLE
  8
_0-0_0
  6
CONTINUOUS
 62
    5
 10
123.684798
 20
110.936415
 40
0.5
  0
CIRCLE
  8
_0-0_0
  6
CONTINUOUS
 62
    5
 10
123.684798
 20
110.936415
 40
0.25
  0
TEXT
  8
_0-0_0
 62
    7
 10
111.604805
 20
111.93641700000001
 40
3.2200000000000002
 41
0.645963
 50
0
  1
40
  0
ENDBLK
  0
BLOCK
  2
-104-BLKF0111
 70
   64
 10
0
 20
0
 30
0
  0
LINE
  8
_0-0_0
  6
CONTINUOUS
 62
    5
 10
88.184798000000001
 20
151.42487399999999
 11
66.185201000000006
 21
151.42487399999999
  0
LINE
  8
_0-0_0
  6
CONTINUOUS
 62
    5
 10
88.184798000000001
 20
148.92487399999999
 11
66.185201000000006
 21
148.92487399999999
  0
LINE
  8
_0-0_0
  6
CONTINUOUS
 62
    5
 10
67.185201000000006
 20
151.42487399999999
 11
67.185201000000006
 21
148.92487399999999
  0
LINE
  8
_0-0_0
  6
CONTINUOUS
 62
    5
 10
67.185201000000006
 20
151.42487399999999
 11
67.185201000000006
 21
150.42487399999999
  0
CIRCLE
  8
_0-0_0
  6
CONTINUOUS
 62
    5
 10
67.185201000000006
 20
151.42487399999999
 40
0.5
  0
CIRCLE
  8
_0-0_0
  6
CONTINUOUS
 62
    5
 10
67.185201000000006
 20
151.42487399999999
 40
0.25
  0
LINE
  8
_0-0_0
  6
CONTINUOUS
 62
    5
 10
67.185201000000006
 20
153.87487400000001
 11
67.185201000000006
 21
151.42487399999999
  0
LINE
  8
_0-0_0
  6
CONTINUOUS
 62
    5
 10
67.185201000000006
 20
151.42487399999999
 11
67.185201000000006
 21
152.42487399999999
  0
CIRCLE
  8
_0-0_0
  6
CONTINUOUS
 62
    5
 10
67.185201000000006
 20
151.42487399999999
 40
0.5
  0
CIRCLE
  8
_0-0_0
  6
CONTINUOUS
 62
    5
 10
67.185201000000006
 20
151.42487399999999
 40
0.25
  0
TEXT
  8
_0-0_0
 62
    7
 10
66.185187999999997
 20
151.92486600000001
 40
3.2200000000000002
 41
0.6055899999999998
 50
90
  1
5
  0
ENDBLK
  0
BLOCK
  2
-105-BLKF0112
 70
   64
 10
0
 20
0
 30
0
  0
LINE
  8
_0-0_0
  6
CONTINUOUS
 62
    5
 10
88.184798000000001
 20
138.92487399999999
 11
66.185201000000006
 21
138.92487399999999
  0
LINE
  8
_0-0_0
  6
CONTINUOUS
 62
    5
 10
67.185201000000006
 20
148.92487399999999
 11
67.185201000000006
 21
138.92487399999999
  0
LINE
  8
_0-0_0
  6
CONTINUOUS
 62
    5
 10
67.185201000000006
 20
148.92487399999999
 11
67.185201000000006
 21
147.92487399999999
  0
CIRCLE
  8
_0-0_0
  6
CONTINUOUS
 62
    5
 10
67.185201000000006
 20
148.92487399999999
 40
0.5
  0
CIRCLE
  8
_0-0_0
  6
CONTINUOUS
 62
    5
 10
67.185201000000006
 20
148.92487399999999
 40
0.25
  0
LINE
  8
_0-0_0
  6
CONTINUOUS
 62
    5
 10
67.185201000000006
 20
138.92487399999999
 11
67.185201000000006
 21
139.92487399999999
  0
CIRCLE
  8
_0-0_0
  6
CONTINUOUS
 62
    5
 10
67.185201000000006
 20
138.92487399999999
 40
0.5
  0
CIRCLE
  8
_0-0_0
  6
CONTINUOUS
 62
    5
 10
67.185201000000006
 20
138.92487399999999
 40
0.25
  0
TEXT
  8
_0-0_0
 62
    7
 10
66.185187999999997
 20
141.844864
 40
3.2200000000000002
 41
0.645963
 50
90
  1
20
  0
ENDBLK
  0
BLOCK
  2
-106-BLKF0113
 70
   64
 10
0
 20
0
 30
0
  0
LINE
  8
_0-0_0
  6
CONTINUOUS
 62
    5
 10
88.967865000000003
 20
140.89925700000001
 11
78.883106999999995
 21
115.530405
  0
LINE
  8
_0-0_0
  6
CONTINUOUS
 62
    5
 10
88.967865000000003
 20
140.89925700000001
 11
87.859643000000005
 21
138.11145400000001
  0
LINE
  8
_0-0_0
  6
CONTINUOUS
 62
    5
 10
88.967865000000003
 20
140.89925700000001
 11
87.175867999999994
 21
138.49327400000001
  0
LINE
  8
_0-0_0
  6
CONTINUOUS
 62
    5
 10
88.967865000000003
 20
140.89925700000001
 11
88.618941000000007
 21
137.91961699999999
  0
LINE
  8
_0-0_0
  6
CONTINUOUS
 62
    5
 10
78.883106999999995
 20
115.530405
 11
57.364655999999997
 21
115.530405
  0
TEXT
  8
_0-0_0
 62
    7
 10
58.364635
 20
116.530396
 40
3.2200000000000002
 41
0.6773639999999998
 50
0
  1
横ル-ズ穴9Ｘ20
  0
ENDBLK
  0
BLOCK
  2
-107-BLKF0114
 70
   64
 10
0
 20
0
 30
0
  0
LINE
  8
_0-0_0
  6
CONTINUOUS
 62
    5
 10
119.684798
 20
136.92487399999999
 11
128.28315599999999
 21
136.92487399999999
  0
LINE
  8
_0-0_0
  6
CONTINUOUS
 62
    5
 10
127.28315600000001
 20
135.42487399999999
 11
127.28315600000001
 21
136.92487399999999
  0
LINE
  8
_0-0_0
  6
CONTINUOUS
 62
    5
 10
127.28315600000001
 20
135.42487399999999
 11
127.28315600000001
 21
136.42487399999999
  0
CIRCLE
  8
_0-0_0
  6
CONTINUOUS
 62
    5
 10
127.28315600000001
 20
135.42487399999999
 40
0.5
  0
CIRCLE
  8
_0-0_0
  6
CONTINUOUS
 62
    5
 10
127.28315600000001
 20
135.42487399999999
 40
0.25
  0
LINE
  8
_0-0_0
  6
CONTINUOUS
 62
    5
 10
127.28315600000001
 20
136.92487399999999
 11
127.28315600000001
 21
135.92487399999999
  0
CIRCLE
  8
_0-0_0
  6
CONTINUOUS
 62
    5
 10
127.28315600000001
 20
136.92487399999999
 40
0.5
  0
CIRCLE
  8
_0-0_0
  6
CONTINUOUS
 62
    5
 10
127.28315600000001
 20
136.92487399999999
 40
0.25
  0
TEXT
  8
_0-0_0
 62
    7
 10
128.269913
 20
137.800476
 40
3.2200000000000002
 41
0.6055899999999998
 50
90
  1
3
  0
ENDBLK
  0
BLOCK
  2
-108-BLKF0115
 70
   64
 10
0
 20
0
 30
0
  0
TEXT
  8
_0-0_0
 62
    7
 10
126.83457199999999
 20
147.20779400000001
 40
3.2200000000000002
 41
0.6773639999999998
 50
0
  1
横ル-ズ穴9Ｘ40
  0
LINE
  8
_0-0_0
  6
CONTINUOUS
 62
    5
 10
114.367656
 20
136.31338
 11
125.508616
 21
146.20779899999999
  0
LINE
  8
_0-0_0
  6
CONTINUOUS
 62
    5
 10
114.367656
 20
136.31338
 11
116.610749
 21
138.305498
  0
LINE
  8
_0-0_0
  6
CONTINUOUS
 62
    5
 10
114.367656
 20
136.31338
 11
117.049916
 21
137.65706299999999
  0
LINE
  8
_0-0_0
  6
CONTINUOUS
 62
    5
 10
114.367656
 20
136.31338
 11
116.01872
 21
138.818174
  0
LINE
  8
_0-0_0
  6
CONTINUOUS
 62
    5
 10
125.508616
 20
146.20779899999999
 11
147.464575
 21
146.20779899999999
  0
ENDBLK
  0
BLOCK
  2
-109-BLKF0116
 70
   64
 10
0
 20
0
 30
0
  0
LINE
  8
_0-0_0
  6
CONTINUOUS
 62
    3
 10
103.684798
 20
136.92487399999999
 11
105.809798
 21
136.92487399999999
  0
LINE
  8
_0-0_0
  6
CONTINUOUS
 62
    3
 10
90.684798000000001
 20
136.92487399999999
 11
122.684798
 21
136.92487399999999
  0
LINE
  8
_0-0_0
  6
CONTINUOUS
 62
    3
 10
90.684798000000001
 20
135.42487399999999
 11
122.684798
 21
135.42487399999999
  0
LINE
  8
_0-0_0
  6
CONTINUOUS
 62
    3
 10
122.684798
 20
135.42487399999999
 11
122.684798
 21
136.92487399999999
  0
LINE
  8
_0-0_0
  6
CONTINUOUS
 62
    3
 10
122.684798
 20
135.92487399999999
 11
122.684798
 21
136.92487399999999
  0
LINE
  8
_0-0_0
  6
PHANTOM
 62
    7
 10
110.184798
 20
135.42487399999999
 11
110.184798
 21
136.92487399999999
  0
LINE
  8
_0-0_0
  6
PHANTOM
 62
    7
 10
110.684798
 20
135.42487399999999
 11
110.684798
 21
136.92487399999999
  0
LINE
  8
_0-0_0
  6
PHANTOM
 62
    7
 10
111.184798
 20
135.42487399999999
 11
111.184798
 21
136.92487399999999
  0
LINE
  8
_0-0_0
  6
PHANTOM
 62
    7
 10
111.684798
 20
135.42487399999999
 11
111.684798
 21
136.92487399999999
  0
LINE
  8
_0-0_0
  6
PHANTOM
 62
    7
 10
112.184798
 20
135.42487399999999
 11
112.184798
 21
136.92487399999999
  0
LINE
  8
_0-0_0
  6
PHANTOM
 62
    7
 10
112.684798
 20
135.42487399999999
 11
112.684798
 21
136.92487399999999
  0
LINE
  8
_0-0_0
  6
PHANTOM
 62
    7
 10
113.184798
 20
135.42487399999999
 11
113.184798
 21
136.92487399999999
  0
LINE
  8
_0-0_0
  6
PHANTOM
 62
    7
 10
113.684798
 20
135.42487399999999
 11
113.684798
 21
136.92487399999999
  0
LINE
  8
_0-0_0
  6
PHANTOM
 62
    7
 10
114.184798
 20
135.42487399999999
 11
114.184798
 21
136.92487399999999
  0
LINE
  8
_0-0_0
  6
PHANTOM
 62
    7
 10
114.684798
 20
135.42487399999999
 11
114.684798
 21
136.92487399999999
  0
LINE
  8
_0-0_0
  6
PHANTOM
 62
    7
 10
115.184798
 20
135.42487399999999
 11
115.184798
 21
136.92487399999999
  0
LINE
  8
_0-0_0
  6
PHANTOM
 62
    7
 10
115.684798
 20
135.42487399999999
 11
115.684798
 21
136.92487399999999
  0
LINE
  8
_0-0_0
  6
PHANTOM
 62
    7
 10
116.184798
 20
135.42487399999999
 11
116.184798
 21
136.92487399999999
  0
LINE
  8
_0-0_0
  6
PHANTOM
 62
    7
 10
116.684798
 20
135.42487399999999
 11
116.684798
 21
136.92487399999999
  0
LINE
  8
_0-0_0
  6
PHANTOM
 62
    7
 10
117.184798
 20
135.42487399999999
 11
117.184798
 21
136.92487399999999
  0
LINE
  8
_0-0_0
  6
PHANTOM
 62
    7
 10
117.684798
 20
135.42487399999999
 11
117.684798
 21
136.92487399999999
  0
LINE
  8
_0-0_0
  6
PHANTOM
 62
    7
 10
118.184798
 20
135.42487399999999
 11
118.184798
 21
136.92487399999999
  0
LINE
  8
_0-0_0
  6
PHANTOM
 62
    7
 10
118.684798
 20
135.42487399999999
 11
118.684798
 21
136.92487399999999
  0
LINE
  8
_0-0_0
  6
PHANTOM
 62
    7
 10
119.184798
 20
135.42487399999999
 11
119.184798
 21
136.92487399999999
  0
LINE
  8
_0-0_0
  6
PHANTOM
 62
    7
 10
119.684798
 20
135.42487399999999
 11
119.684798
 21
136.92487399999999
  0
LINE
  8
_0-0_0
  6
PHANTOM
 62
    7
 10
120.184798
 20
135.42487399999999
 11
120.184798
 21
136.92487399999999
  0
LINE
  8
_0-0_0
  6
PHANTOM
 62
    7
 10
109.684798
 20
135.42487399999999
 11
109.684798
 21
136.92487399999999
  0
LINE
  8
_0-0_0
  6
PHANTOM
 62
    7
 10
109.184798
 20
135.42487399999999
 11
109.184798
 21
136.92487399999999
  0
LINE
  8
_0-0_0
  6
PHANTOM
 62
    7
 10
108.684798
 20
135.42487399999999
 11
108.684798
 21
136.92487399999999
  0
LINE
  8
_0-0_0
  6
PHANTOM
 62
    7
 10
108.184798
 20
135.42487399999999
 11
108.184798
 21
136.92487399999999
  0
LINE
  8
_0-0_0
  6
PHANTOM
 62
    7
 10
107.684798
 20
135.42487399999999
 11
107.684798
 21
136.92487399999999
  0
LINE
  8
_0-0_0
  6
PHANTOM
 62
    7
 10
107.184798
 20
135.42487399999999
 11
107.184798
 21
136.92487399999999
  0
LINE
  8
_0-0_0
  6
PHANTOM
 62
    7
 10
106.684798
 20
135.42487399999999
 11
106.684798
 21
136.92487399999999
  0
LINE
  8
_0-0_0
  6
PHANTOM
 62
    7
 10
106.184798
 20
135.42487399999999
 11
106.184798
 21
136.92487399999999
  0
LINE
  8
_0-0_0
  6
PHANTOM
 62
    7
 10
105.684798
 20
135.42487399999999
 11
105.684798
 21
136.92487399999999
  0
LINE
  8
_0-0_0
  6
PHANTOM
 62
    7
 10
105.184798
 20
135.42487399999999
 11
105.184798
 21
136.92487399999999
  0
LINE
  8
_0-0_0
  6
PHANTOM
 62
    7
 10
104.684798
 20
135.42487399999999
 11
104.684798
 21
136.92487399999999
  0
LINE
  8
_0-0_0
  6
PHANTOM
 62
    7
 10
104.184798
 20
135.42487399999999
 11
104.184798
 21
136.92487399999999
  0
LINE
  8
_0-0_0
  6
PHANTOM
 62
    7
 10
103.684798
 20
135.42487399999999
 11
103.684798
 21
136.92487399999999
  0
LINE
  8
_0-0_0
  6
PHANTOM
 62
    7
 10
103.184798
 20
135.42487399999999
 11
103.184798
 21
136.92487399999999
  0
LINE
  8
_0-0_0
  6
PHANTOM
 62
    7
 10
102.684798
 20
135.42487399999999
 11
102.684798
 21
136.92487399999999
  0
LINE
  8
_0-0_0
  6
PHANTOM
 62
    7
 10
102.184798
 20
135.42487399999999
 11
102.184798
 21
136.92487399999999
  0
LINE
  8
_0-0_0
  6
PHANTOM
 62
    7
 10
101.684798
 20
135.42487399999999
 11
101.684798
 21
136.92487399999999
  0
LINE
  8
_0-0_0
  6
PHANTOM
 62
    7
 10
101.184798
 20
135.42487399999999
 11
101.184798
 21
136.92487399999999
  0
LINE
  8
_0-0_0
  6
PHANTOM
 62
    7
 10
100.684798
 20
135.42487399999999
 11
100.684798
 21
136.92487399999999
  0
LINE
  8
_0-0_0
  6
PHANTOM
 62
    7
 10
100.184798
 20
135.42487399999999
 11
100.184798
 21
136.92487399999999
  0
ARC
  8
_0-0_0
  6
CONTINUOUS
 62
    3
 10
90.684798000000001
 20
137.42487399999999
 40
0.5
 50
180
 51
270
  0
ARC
  8
_0-0_0
  6
CONTINUOUS
 62
    3
 10
90.684798000000001
 20
137.42487399999999
 40
2
 50
180
 51
270
  0
LINE
  8
_0-0_0
  6
CONTINUOUS
 62
    3
 10
90.184798000000001
 20
137.42487399999999
 11
90.184798000000001
 21
151.42487399999999
  0
LINE
  8
_0-0_0
  6
CENTER
 62
    7
 10
88.684798000000001
 20
138.92487399999999
 11
90.184798000000001
 21
138.92487399999999
  0
LINE
  8
_0-0_0
  6
CENTER
 62
    7
 10
88.684798000000001
 20
148.92487399999999
 11
90.184798000000001
 21
148.92487399999999
  0
LINE
  8
_0-0_0
  6
CENTER
 62
    7
 10
88.684798000000001
 20
139.42487399999999
 11
90.184798000000001
 21
139.42487399999999
  0
LINE
  8
_0-0_0
  6
CENTER
 62
    7
 10
88.684798000000001
 20
139.92487399999999
 11
90.184798000000001
 21
139.92487399999999
  0
LINE
  8
_0-0_0
  6
CENTER
 62
    7
 10
88.684798000000001
 20
140.42487399999999
 11
90.184798000000001
 21
140.42487399999999
  0
LINE
  8
_0-0_0
  6
CENTER
 62
    7
 10
88.684798000000001
 20
140.92487399999999
 11
90.184798000000001
 21
140.92487399999999
  0
LINE
  8
_0-0_0
  6
CENTER
 62
    7
 10
88.684798000000001
 20
141.42487399999999
 11
90.184798000000001
 21
141.42487399999999
  0
LINE
  8
_0-0_0
  6
CENTER
 62
    7
 10
88.684798000000001
 20
141.92487399999999
 11
90.184798000000001
 21
141.92487399999999
  0
LINE
  8
_0-0_0
  6
CENTER
 62
    7
 10
88.684798000000001
 20
142.42487399999999
 11
90.184798000000001
 21
142.42487399999999
  0
LINE
  8
_0-0_0
  6
CENTER
 62
    7
 10
88.684798000000001
 20
142.92487399999999
 11
90.184798000000001
 21
142.92487399999999
  0
LINE
  8
_0-0_0
  6
CENTER
 62
    7
 10
88.684798000000001
 20
143.42487399999999
 11
90.184798000000001
 21
143.42487399999999
  0
LINE
  8
_0-0_0
  6
CENTER
 62
    7
 10
88.684798000000001
 20
143.92487399999999
 11
90.184798000000001
 21
143.92487399999999
  0
LINE
  8
_0-0_0
  6
CENTER
 62
    7
 10
88.684798000000001
 20
144.42487399999999
 11
90.184798000000001
 21
144.42487399999999
  0
LINE
  8
_0-0_0
  6
CENTER
 62
    7
 10
88.684798000000001
 20
144.92487399999999
 11
90.184798000000001
 21
144.92487399999999
  0
LINE
  8
_0-0_0
  6
CENTER
 62
    7
 10
88.684798000000001
 20
145.42487399999999
 11
90.184798000000001
 21
145.42487399999999
  0
LINE
  8
_0-0_0
  6
CENTER
 62
    7
 10
88.684798000000001
 20
145.92487399999999
 11
90.184798000000001
 21
145.92487399999999
  0
LINE
  8
_0-0_0
  6
CENTER
 62
    7
 10
88.684798000000001
 20
146.42487399999999
 11
90.184798000000001
 21
146.42487399999999
  0
LINE
  8
_0-0_0
  6
CENTER
 62
    7
 10
88.684798000000001
 20
146.92487399999999
 11
90.184798000000001
 21
146.92487399999999
  0
LINE
  8
_0-0_0
  6
CENTER
 62
    7
 10
88.684798000000001
 20
147.42487399999999
 11
90.184798000000001
 21
147.42487399999999
  0
LINE
  8
_0-0_0
  6
CENTER
 62
    7
 10
88.684798000000001
 20
147.92487399999999
 11
90.184798000000001
 21
147.92487399999999
  0
LINE
  8
_0-0_0
  6
CENTER
 62
    7
 10
88.684798000000001
 20
148.42487399999999
 11
90.184798000000001
 21
148.42487399999999
  0
LINE
  8
_0-0_0
  6
CENTER
 62
    7
 10
88.684798000000001
 20
148.92487399999999
 11
90.184798000000001
 21
148.92487399999999
  0
LINE
  8
_0-0_0
  6
CONTINUOUS
 62
    3
 10
88.684798000000001
 20
151.42487399999999
 11
90.184798000000001
 21
151.42487399999999
  0
LINE
  8
_0-0_0
  6
CONTINUOUS
 62
    3
 10
88.684798000000001
 20
137.42487399999999
 11
88.684798000000001
 21
151.42487399999999
  0
ENDBLK
  0
BLOCK
  2
-110-BLKF0117
 70
   64
 10
0
 20
0
 30
0
  0
LINE
  8
_0-0_0
  6
CONTINUOUS
 62
    3
 10
112.059798
 20
135.42487399999999
 11
112.059798
 21
134.82487399999999
  0
LINE
  8
_0-0_0
  6
CONTINUOUS
 62
    3
 10
112.059798
 20
135.42487399999999
 11
104.684799
 21
135.42487399999999
  0
LINE
  8
_0-0_0
  6
CONTINUOUS
 62
    3
 10
103.684798
 20
134.42487399999999
 11
103.684798
 21
133.966239
  0
LINE
  8
_0-0_0
  6
CONTINUOUS
 62
    3
 10
104.684799
 20
127.424874
 11
112.059798
 21
127.424874
  0
LINE
  8
_0-0_0
  6
CONTINUOUS
 62
    3
 10
112.059798
 20
127.424874
 11
112.059798
 21
128.02487400000001
  0
POINT
  8
_0-0_0
 62
    7
 10
103.684798
 20
131.42487399999999
  0
LINE
  8
_0-0_0
  6
CONTINUOUS
 62
    3
 10
104.434798
 20
133.24987400000001
 11
104.434798
 21
131.57487399999999
  0
LINE
  8
_0-0_0
  6
CONTINUOUS
 62
    3
 10
105.184798
 20
133.68692100000001
 11
105.184798
 21
129.16282699999999
  0
LINE
  8
_0-0_0
  6
CONTINUOUS
 62
    3
 10
104.434798
 20
133.24987400000001
 11
103.938292
 21
133.531228
  0
LINE
  8
_0-0_0
  6
CONTINUOUS
 62
    3
 10
104.434798
 20
129.599874
 11
103.938292
 21
129.318521
  0
LINE
  8
_0-0_0
  6
CONTINUOUS
 62
    3
 10
110.934799
 20
134.82487399999999
 11
112.059798
 21
134.82487399999999
  0
LINE
  8
_0-0_0
  6
CONTINUOUS
 62
    3
 10
110.934799
 20
128.02487400000001
 11
112.059798
 21
128.02487400000001
  0
LINE
  8
_0-0_0
  6
CONTINUOUS
 62
    3
 10
110.934799
 20
134.82487399999999
 11
110.934799
 21
133.474874
  0
LINE
  8
_0-0_0
  6
CONTINUOUS
 62
    3
 10
110.934799
 20
128.02487400000001
 11
110.934799
 21
129.37487400000001
  0
LINE
  8
_0-0_0
  6
CONTINUOUS
 62
    3
 10
110.184798
 20
134.67487399999999
 11
110.184798
 21
132.51574500000001
  0
LINE
  8
_0-0_0
  6
CONTINUOUS
 62
    3
 10
110.184798
 20
128.17487399999999
 11
110.184798
 21
130.334003
  0
LINE
  8
_0-0_0
  6
CONTINUOUS
 62
    3
 10
110.184798
 20
134.67487399999999
 11
104.684799
 21
134.67487399999999
  0
LINE
  8
_0-0_0
  6
CONTINUOUS
 62
    3
 10
110.184798
 20
128.17487399999999
 11
104.684799
 21
128.17487399999999
  0
LINE
  8
_0-0_0
  6
CONTINUOUS
 62
    3
 10
105.184798
 20
133.68692100000001
 11
104.561545
 21
134.040098
  0
LINE
  8
_0-0_0
  6
CONTINUOUS
 62
    3
 10
105.184798
 20
129.16282699999999
 11
104.561545
 21
128.809651
  0
LINE
  8
_0-0_0
  6
CONTINUOUS
 62
    3
 10
104.434798
 20
134.42487399999999
 11
104.434798
 21
134.25760399999999
  0
LINE
  8
_0-0_0
  6
CONTINUOUS
 62
    3
 10
104.434798
 20
128.59214499999999
 11
104.434798
 21
128.42487399999999
  0
LINE
  8
_0-0_0
  6
CONTINUOUS
 62
    3
 10
103.684798
 20
128.88351
 11
103.684798
 21
128.42487399999999
  0
ARC
  8
_0-0_0
  6
CONTINUOUS
 62
    3
 10
104.684799
 20
134.42487399999999
 40
1
 50
90
 51
180
  0
ARC
  8
_0-0_0
  6
CONTINUOUS
 62
    3
 10
104.684799
 20
128.42487399999999
 40
1
 50
180
 51
270
  0
ARC
  8
_0-0_0
  6
CONTINUOUS
 62
    3
 10
104.184798
 20
128.88351
 40
0.5
 50
119.53878199999998
 51
180
  0
ARC
  8
_0-0_0
  6
CONTINUOUS
 62
    3
 10
104.184798
 20
133.966239
 40
0.5
 50
180
 51
240.46121799999997
  0
ARC
  8
_0-0_0
  6
CONTINUOUS
 62
    3
 10
104.684799
 20
134.42487399999999
 40
0.25
 50
90
 51
180
  0
ARC
  8
_0-0_0
  6
CONTINUOUS
 62
    3
 10
104.684799
 20
134.25760399999999
 40
0.25
 50
180
 51
240.46121799999997
  0
ARC
  8
_0-0_0
  6
CONTINUOUS
 62
    3
 10
104.684799
 20
128.59214499999999
 40
0.25
 50
119.53878199999998
 51
180
  0
ARC
  8
_0-0_0
  6
CONTINUOUS
 62
    3
 10
104.684799
 20
128.42487399999999
 40
0.25
 50
180
 51
270
  0
LINE
  8
_0-0_0
  6
CONTINUOUS
 62
    3
 10
123.184798
 20
135.42487399999999
 11
116.309798
 21
135.42487399999999
  0
LINE
  8
_0-0_0
  6
CONTINUOUS
 62
    3
 10
116.309798
 20
135.42487399999999
 11
116.309798
 21
134.82487399999999
  0
LINE
  8
_0-0_0
  6
CONTINUOUS
 62
    3
 10
116.309798
 20
134.82487399999999
 11
117.434798
 21
134.82487399999999
  0
LINE
  8
_0-0_0
  6
CONTINUOUS
 62
    3
 10
116.309798
 20
128.02487400000001
 11
116.309798
 21
127.424874
  0
LINE
  8
_0-0_0
  6
CONTINUOUS
 62
    3
 10
116.309798
 20
127.424874
 11
123.184798
 21
127.424874
  0
LINE
  8
_0-0_0
  6
CONTINUOUS
 62
    3
 10
116.309798
 20
128.02487400000001
 11
117.434798
 21
128.02487400000001
  0
LINE
  8
_0-0_0
  6
CONTINUOUS
 62
    3
 10
123.684798
 20
134.92487399999999
 11
123.684798
 21
134.32487399999999
  0
LINE
  8
_0-0_0
  6
CONTINUOUS
 62
    3
 10
123.684798
 20
127.924874
 11
123.684798
 21
128.52487400000001
  0
LINE
  8
_0-0_0
  6
CONTINUOUS
 62
    3
 10
122.934798
 20
134.67487399999999
 11
122.934798
 21
134.32487399999999
  0
LINE
  8
_0-0_0
  6
CONTINUOUS
 62
    3
 10
122.934798
 20
128.17487399999999
 11
122.934798
 21
128.52487400000001
  0
LINE
  8
_0-0_0
  6
CONTINUOUS
 62
    3
 10
117.434798
 20
134.82487399999999
 11
117.434798
 21
133.57487399999999
  0
LINE
  8
_0-0_0
  6
CONTINUOUS
 62
    3
 10
117.434798
 20
128.02487400000001
 11
117.434798
 21
129.27487400000001
  0
LINE
  8
_0-0_0
  6
CONTINUOUS
 62
    3
 10
118.184798
 20
134.67487399999999
 11
118.184798
 21
132.974874
  0
LINE
  8
_0-0_0
  6
CONTINUOUS
 62
    3
 10
118.184798
 20
128.17487399999999
 11
118.184798
 21
129.87487400000001
  0
LINE
  8
_0-0_0
  6
CONTINUOUS
 62
    3
 10
122.934798
 20
134.32487399999999
 11
123.684798
 21
134.32487399999999
  0
LINE
  8
_0-0_0
  6
CONTINUOUS
 62
    3
 10
122.934798
 20
128.52487400000001
 11
123.684798
 21
128.52487400000001
  0
LINE
  8
_0-0_0
  6
CONTINUOUS
 62
    3
 10
118.184798
 20
134.67487399999999
 11
122.934798
 21
134.67487399999999
  0
LINE
  8
_0-0_0
  6
CONTINUOUS
 62
    3
 10
118.184798
 20
128.17487399999999
 11
122.934798
 21
128.17487399999999
  0
ARC
  8
_0-0_0
  6
CONTINUOUS
 62
    3
 10
123.184798
 20
134.92487399999999
 40
0.5
 50
0
 51
90
  0
ARC
  8
_0-0_0
  6
CONTINUOUS
 62
    3
 10
123.184798
 20
127.924874
 40
0.5
 50
270
 51
0
  0
LINE
  8
_0-0_0
  6
CONTINUOUS
 62
    3
 10
112.184799
 20
132.724874
 11
112.184799
 21
130.12487400000001
  0
LINE
  8
_0-0_0
  6
CONTINUOUS
 62
    3
 10
112.184799
 20
132.724874
 11
115.58479800000001
 21
132.724874
  0
LINE
  8
_0-0_0
  6
CONTINUOUS
 62
    3
 10
112.184799
 20
130.12487400000001
 11
115.58479800000001
 21
130.12487400000001
  0
LINE
  8
_0-0_0
  6
CONTINUOUS
 62
    3
 10
118.184798
 20
132.974874
 11
115.784302
 21
132.734825
  0
LINE
  8
_0-0_0
  6
CONTINUOUS
 62
    3
 10
117.434798
 20
133.57487399999999
 11
115.684799
 21
133.474874
  0
LINE
  8
_0-0_0
  6
CONTINUOUS
 62
    3
 10
115.684798
 20
129.37487400000001
 11
117.434798
 21
129.27487400000001
  0
LINE
  8
_0-0_0
  6
CONTINUOUS
 62
    3
 10
110.934799
 20
133.474874
 11
115.684799
 21
133.474874
  0
LINE
  8
_0-0_0
  6
CONTINUOUS
 62
    3
 10
110.934799
 20
129.37487400000001
 11
115.684798
 21
129.37487400000001
  0
POINT
  8
_0-0_0
 62
    7
 10
103.684798
 20
133.67487399999999
  0
POINT
  8
_0-0_0
 62
    7
 10
103.684798
 20
129.17487399999999
  0
ARC
  8
_0-0_0
  6
CONTINUOUS
 62
    3
 10
115.684798
 20
132.724874
 40
0.1
 50
180
 51
5.7105929999999603
  0
ARC
  8
_0-0_0
  6
CONTINUOUS
 62
    3
 10
115.684798
 20
130.12487400000001
 40
0.1
 50
354.28940699999998
 51
180
  0
LINE
  8
_0-0_0
  6
CONTINUOUS
 62
    3
 10
115.784302
 20
130.114924
 11
118.184798
 21
129.87487400000001
  0
ARC
  8
_0-0_0
  6
CONTINUOUS
 62
    3
 10
110.684798
 20
131.42487399999999
 40
1.2
 50
224.47751200000002
 51
245.37568200000004
  0
ARC
  8
_0-0_0
  6
CONTINUOUS
 62
    3
 10
109.999813
 20
130.75227100000001
 40
0.2399999999999999
 50
119.99999999999999
 51
224.47751199999999
  0
ARC
  8
_0-0_0
  6
CONTINUOUS
 62
    3
 10
109.999813
 20
130.75227100000001
 40
0.2399999999999999
 50
44.477511999999997
 51
119.99999999999999
  0
ARC
  8
_0-0_0
  6
CONTINUOUS
 62
    3
 10
110.684798
 20
131.42487399999999
 40
0.7199999999999997
 50
224.47751200000002
 51
135.52248800000001
  0
ARC
  8
_0-0_0
  6
CONTINUOUS
 62
    3
 10
109.999813
 20
132.097478
 40
0.2399999999999999
 50
135.52248800000001
 51
240.00000000000003
  0
ARC
  8
_0-0_0
  6
CONTINUOUS
 62
    3
 10
109.999813
 20
132.097478
 40
0.2399999999999999
 50
239.99999999999997
 51
315.52248800000001
  0
ARC
  8
_0-0_0
  6
CONTINUOUS
 62
    3
 10
110.684798
 20
131.42487399999999
 40
1.2
 50
114.62431799999997
 51
135.52248799999998
  0
LINE
  8
_0-0_0
  6
CONTINUOUS
 62
    3
 10
104.434798
 20
131.27487400000001
 11
104.434798
 21
129.599874
  0
LINE
  8
_0-0_0
  6
CONTINUOUS
 62
    3
 10
104.58479800000001
 20
131.42487399999999
 11
104.434798
 21
131.27487400000001
  0
LINE
  8
_0-0_0
  6
CONTINUOUS
 62
    3
 10
104.434798
 20
131.57487399999999
 11
104.58479800000001
 21
131.42487399999999
  0
ENDBLK
  0
BLOCK
  2
-111-BLKF0118
 70
   64
 10
0
 20
0
 30
0
  0
LINE
  8
_0-0_0
  6
CONTINUOUS
 62
    7
 10
116.22735299999999
 20
141.66359600000001
 11
116.22735299999999
 21
142.28872799999999
  0
LINE
  8
_0-0_0
  6
CONTINUOUS
 62
    7
 10
115.81884100000001
 20
142.697238
 11
112.550757
 21
142.697238
  0
LINE
  8
_0-0_0
  6
CONTINUOUS
 62
    7
 10
112.142245
 20
142.28872799999999
 11
112.142245
 21
141.66359600000001
  0
LINE
  8
_0-0_0
  6
CONTINUOUS
 62
    7
 10
115.81884100000001
 20
141.66359600000001
 11
115.81884100000001
 21
142.697238
  0
LINE
  8
_0-0_0
  6
CONTINUOUS
 62
    7
 10
112.550757
 20
142.697238
 11
112.550757
 21
141.66359600000001
  0
LINE
  8
_0-0_0
  6
CONTINUOUS
 62
    7
 10
116.22735299999999
 20
142.28872799999999
 11
115.81884100000001
 21
142.697238
  0
LINE
  8
_0-0_0
  6
CONTINUOUS
 62
    7
 10
112.142245
 20
142.28872799999999
 11
112.550757
 21
142.697238
  0
LINE
  8
_0-0_0
  6
CONTINUOUS
 62
    7
 10
116.22735299999999
 20
142.28872799999999
 11
112.142245
 21
142.28872799999999
  0
ARC
  8
_0-0_0
  6
CONTINUOUS
 62
    7
 10
111.12097
 20
140.29299499999999
 40
1.370601
 50
41.829726999999998
 51
138.170288
  0
ARC
  8
_0-0_0
  6
CONTINUOUS
 62
    7
 10
114.184798
 20
136.86596900000001
 40
4.7976270000000003
 50
64.802338000000006
 51
115.19766200000002
  0
ARC
  8
_0-0_0
  6
CONTINUOUS
 62
    7
 10
117.24862899999999
 20
140.29299399999999
 40
1.3706020000000001
 50
41.829726999999998
 51
138.17027300000001
  0
LINE
  8
_0-0_0
  6
CONTINUOUS
 62
    7
 10
110.099692
 20
141.207075
 11
110.099692
 21
137.79636300000001
  0
LINE
  8
_0-0_0
  6
CONTINUOUS
 62
    7
 10
118.26990600000001
 20
137.79636300000001
 11
118.26990600000001
 21
141.207075
  0
LINE
  8
_0-0_0
  6
CONTINUOUS
 62
    7
 10
111.12097
 20
141.66359600000001
 11
117.24862899999999
 21
141.66359600000001
  0
LINE
  8
_0-0_0
  6
CONTINUOUS
 62
    7
 10
116.22735299999999
 20
141.207075
 11
116.22735299999999
 21
138.66785100000001
  0
LINE
  8
_0-0_0
  6
CONTINUOUS
 62
    7
 10
112.142245
 20
141.207075
 11
112.142245
 21
138.66785100000001
  0
LINE
  8
_0-0_0
  6
CONTINUOUS
 62
    7
 10
109.55501099999999
 20
137.79636300000001
 11
118.814587
 21
137.79636300000001
  0
LINE
  8
_0-0_0
  6
CONTINUOUS
 62
    7
 10
109.55501099999999
 20
137.79636300000001
 11
109.55501099999999
 21
136.92487399999999
  0
LINE
  8
_0-0_0
  6
CONTINUOUS
 62
    7
 10
118.814587
 20
137.79636300000001
 11
118.814587
 21
136.92487399999999
  0
LINE
  8
_0-0_0
  6
CONTINUOUS
 62
    7
 10
118.26990600000001
 20
138.66785100000001
 11
110.099692
 21
138.66785100000001
  0
LINE
  8
_0-0_0
  6
CONTINUOUS
 62
    7
 10
113.981836
 20
137.79636300000001
 11
114.84274000000001
 21
138.66785100000001
  0
LINE
  8
_0-0_0
  6
CONTINUOUS
 62
    7
 10
114.23366300000001
 20
137.79636300000001
 11
115.094566
 21
138.66785100000001
  0
LINE
  8
_0-0_0
  6
CENTER
 62
    7
 10
114.184798
 20
129.79370599999999
 11
114.184798
 21
144.77644799999999
  0
ENDBLK
  0
BLOCK
  2
-112-BLKF0119
 70
   64
 10
0
 20
0
 30
0
  0
LINE
  8
_0-0_0
  6
CONTINUOUS
 62
    5
 10
114.184798
 20
153.087851
 11
122.684798
 21
153.087851
  0
TEXT
  8
_0-0_0
 62
    7
 10
115.850533
 20
154.08786000000001
 40
3.2200000000000002
 41
0.6661489999999998
 50
0
  1
17
  0
LINE
  8
_0-0_0
  6
CONTINUOUS
 62
    5
 10
122.684798
 20
136.92487399999999
 11
122.684798
 21
154.087851
  0
CIRCLE
  8
_0-0_0
  6
CONTINUOUS
 62
    5
 10
122.684798
 20
153.087851
 40
0.5
  0
CIRCLE
  8
_0-0_0
  6
CONTINUOUS
 62
    5
 10
122.684798
 20
153.087851
 40
0.25
  0
CIRCLE
  8
_0-0_0
  6
CONTINUOUS
 62
    5
 10
114.184798
 20
153.087851
 40
0.5
  0
CIRCLE
  8
_0-0_0
  6
CONTINUOUS
 62
    5
 10
114.184798
 20
153.087851
 40
0.25
  0
ENDBLK
  0
BLOCK
  2
-113-_D120
 70
   64
 10
0
 20
0
 30
0
  0
TEXT
  8
_0-0_0
 62
    7
 10
107.934792
 20
148.458313
 40
3.2000000000000002
 41
0.703125
 50
0
  1
40
  0
LINE
  8
_0-0_0
  6
CONTINUOUS
 62
    5
 10
100.184798
 20
138.92487399999999
 11
100.184798
 21
148.458313
  0
LINE
  8
_0-0_0
  6
CONTINUOUS
 62
    5
 10
120.184798
 20
138.92487399999999
 11
120.184798
 21
148.458313
  0
LINE
  8
_0-0_0
  6
CONTINUOUS
 62
    5
 10
100.184798
 20
147.458313
 11
120.184798
 21
147.458313
  0
INSERT
  2
-000-EDTIP_BLACKDOT_S
  8
_0-0_0
 10
100.184798
 20
147.458313
 41
1
 42
1
 50
180
  0
INSERT
  2
-001-EDTIP_BLACKDOT_E
  8
_0-0_0
 10
120.184798
 20
147.458313
 41
1
 42
1
 50
0
  0
ENDBLK
  0
BLOCK
  2
-114-_D121
 70
   64
 10
0
 20
0
 30
0
  0
TEXT
  8
_0-0_0
 62
    7
 10
123.184792
 20
148.458313
 40
3.2000000000000002
 41
0.703125
 50
0
  1
5
  0
LINE
  8
_0-0_0
  6
CONTINUOUS
 62
    5
 10
122.684798
 20
138.92487399999999
 11
122.684798
 21
148.458313
  0
LINE
  8
_0-0_0
  6
CONTINUOUS
 62
    5
 10
120.184798
 20
147.458313
 11
122.684798
 21
147.458313
  0
INSERT
  2
-001-EDTIP_BLACKDOT_E
  8
_0-0_0
 10
122.684798
 20
147.458313
 41
1
 42
1
 50
0
  0
LINE
  8
_0-0_0
  6
CONTINUOUS
 62
    5
 10
122.684798
 20
147.458313
 11
125.434798
 21
147.458313
  0
INSERT
  2
-000-EDTIP_BLACKDOT_S
  8
_0-0_0
 10
122.684798
 20
147.458313
 41
1
 42
1
 50
180
  0
ENDBLK
  0
BLOCK
  2
-115-BLKF0122
 70
   64
 10
0
 20
0
 30
0
  0
LINE
  8
_0-0_0
  6
CONTINUOUS
 62
    7
 10
111.00107
 20
134.697238
 11
117.368527
 21
134.697238
  0
LINE
  8
_0-0_0
  6
CONTINUOUS
 62
    7
 10
112.184798
 20
134.697238
 11
112.184798
 21
136.92487399999999
  0
LINE
  8
_0-0_0
  6
CONTINUOUS
 62
    7
 10
116.184798
 20
134.697238
 11
116.184798
 21
136.92487399999999
  0
LINE
  8
_0-0_0
  6
CONTINUOUS
 62
    7
 10
117.368527
 20
133.597238
 11
117.368527
 21
134.697238
  0
LINE
  8
_0-0_0
  6
CONTINUOUS
 62
    7
 10
111.00107
 20
133.597238
 11
117.368527
 21
133.597238
  0
LINE
  8
_0-0_0
  6
CONTINUOUS
 62
    7
 10
111.00107
 20
133.597238
 11
111.00107
 21
134.697238
  0
ENDBLK
  0
BLOCK
  2
-116-_D123
 70
   64
 10
0
 20
0
 30
0
  0
TEXT
  8
_0-0_0
 62
    7
 10
133.426773
 20
129.17486600000001
 40
3.2000000000000002
 41
0.703125
 50
90
  1
16
  0
LINE
  8
_0-0_0
  6
CONTINUOUS
 62
    5
 10
134.42678699999999
 20
127.424874
 11
134.42678699999999
 21
135.42487399999999
  0
INSERT
  2
-000-EDTIP_BLACKDOT_S
  8
_0-0_0
 10
134.42678699999999
 20
127.424874
 41
1
 42
1
 50
270
  0
INSERT
  2
-001-EDTIP_BLACKDOT_E
  8
_0-0_0
 10
134.42678699999999
 20
135.42487399999999
 41
1
 42
1
 50
90
  0
ENDBLK
  0
BLOCK
  2
-117-_D124
 70
   64
 10
0
 20
0
 30
0
  0
TEXT
  8
_0-0_0
 62
    7
 10
93.934792000000002
 20
111.93641700000001
 40
3.2000000000000002
 41
0.703125
 50
0
  1
30
  0
LINE
  8
_0-0_0
  6
CONTINUOUS
 62
    5
 10
103.684798
 20
127.88351
 11
103.684798
 21
109.936415
  0
LINE
  8
_0-0_0
  6
CONTINUOUS
 62
    5
 10
88.684798000000001
 20
110.936415
 11
103.684798
 21
110.936415
  0
INSERT
  2
-000-EDTIP_BLACKDOT_S
  8
_0-0_0
 10
88.684798000000001
 20
110.936415
 41
1
 42
1
 50
180
  0
INSERT
  2
-001-EDTIP_BLACKDOT_E
  8
_0-0_0
 10
103.684798
 20
110.936415
 41
1
 42
1
 50
0
  0
ENDBLK
  0
BLOCK
  2
-118-BLKF0125
 70
   64
 10
0
 20
0
 30
0
  0
TEXT
  8
_0-0_0
 62
    7
 10
57.519317999999998
 20
108.044586
 40
3.2200000000000002
 41
0.672878
 50
0
  1
ブラケットL=68
  0
LINE
  8
_0-0_0
  6
CONTINUOUS
 62
    7
 10
80.329723999999999
 20
106.80071700000001
 11
55.690933999999999
 21
106.80071700000001
  0
TEXT
  8
_0-0_0
 62
    7
 10
56.464458
 20
111.146835
 40
3.2200000000000002
 41
0.678995
 50
0
  1
t;3.0 巾；30　
  0
LINE
  8
_0-0_0
  6
CONTINUOUS
 62
    7
 10
91.969091000000006
 20
136.071439
 11
80.329723999999999
 21
106.80071700000001
  0
LINE
  8
_0-0_0
  6
CONTINUOUS
 62
    7
 10
91.969091000000006
 20
136.071439
 11
91.619857999999994
 21
133.091835
  0
LINE
  8
_0-0_0
  6
CONTINUOUS
 62
    7
 10
91.969091000000006
 20
136.071439
 11
90.176845
 21
133.66564199999999
  0
ENDBLK
  0
BLOCK
  2
-119-BLKF0126
 70
   64
 10
0
 20
0
 30
0
  0
LINE
  8
_0-0_0
  6
CONTINUOUS
 62
    7
 10
71.215571999999995
 20
147.60359600000001
 11
72.709417999999999
 21
147.46785199999999
  0
LINE
  8
_0-0_0
  6
CONTINUOUS
 62
    7
 10
71.215571999999995
 20
147.60359600000001
 11
70.966615000000004
 21
144.86385799999999
  0
LINE
  8
_0-0_0
  6
CONTINUOUS
 62
    7
 10
70.944084000000004
 20
144.865905
 11
78.435840999999996
 21
144.185137
  0
LINE
  8
_0-0_0
  6
CONTINUOUS
 62
    7
 10
73.954305000000005
 20
144.59236999999999
 11
74.203263000000007
 21
147.33210700000001
  0
LINE
  8
_0-0_0
  6
CONTINUOUS
 62
    7
 10
72.709417999999999
 20
147.46785199999999
 11
74.158015000000006
 21
146.834159
  0
LINE
  8
_0-0_0
  6
CONTINUOUS
 62
    7
 10
75.448150999999996
 20
144.456625
 11
75.697108
 21
147.19636299999999
  0
LINE
  8
_0-0_0
  6
CONTINUOUS
 62
    7
 10
74.203263000000007
 20
147.33210700000001
 11
75.651859999999999
 21
146.69841500000001
  0
LINE
  8
_0-0_0
  6
CONTINUOUS
 62
    7
 10
76.941996000000003
 20
144.32088100000001
 11
77.190952999999993
 21
147.060619
  0
LINE
  8
_0-0_0
  6
CONTINUOUS
 62
    7
 10
75.697108
 20
147.19636299999999
 11
77.145705000000007
 21
146.56267
  0
LINE
  8
_0-0_0
  6
CONTINUOUS
 62
    7
 10
72.709417999999999
 20
147.46785199999999
 11
72.460459999999998
 21
144.72811400000001
  0
LINE
  8
_0-0_0
  6
CONTINUOUS
 62
    7
 10
77.190952999999993
 20
147.060619
 11
78.684798000000001
 21
146.92487399999999
  0
LINE
  8
_0-0_0
  6
CONTINUOUS
 62
    7
 10
69.684798000000001
 20
146.42487399999999
 11
69.684798000000001
 21
143.92487399999999
  0
LINE
  8
_0-0_0
  6
CONTINUOUS
 62
    7
 10
69.684798000000001
 20
146.42487399999999
 11
71.108463
 21
146.17487399999999
  0
LINE
  8
_0-0_0
  6
CONTINUOUS
 62
    7
 10
78.435840999999996
 20
144.185137
 11
78.435840999999996
 21
143.92487399999999
  0
LINE
  8
_0-0_0
  6
CONTINUOUS
 62
    7
 10
71.215571999999995
 20
140.24615299999999
 11
72.709417999999999
 21
140.38189700000001
  0
LINE
  8
_0-0_0
  6
CONTINUOUS
 62
    7
 10
71.215571999999995
 20
140.24615299999999
 11
70.966615000000004
 21
142.98589100000001
  0
LINE
  8
_0-0_0
  6
CONTINUOUS
 62
    7
 10
70.944084000000004
 20
142.98384300000001
 11
78.435840999999996
 21
143.66461200000001
  0
LINE
  8
_0-0_0
  6
CONTINUOUS
 62
    7
 10
73.954305000000005
 20
143.25737899999999
 11
74.203263000000007
 21
140.517642
  0
LINE
  8
_0-0_0
  6
CONTINUOUS
 62
    7
 10
72.709417999999999
 20
140.38189700000001
 11
74.158015000000006
 21
141.01559
  0
LINE
  8
_0-0_0
  6
CONTINUOUS
 62
    7
 10
75.448150999999996
 20
143.393124
 11
75.697108
 21
140.65338600000001
  0
LINE
  8
_0-0_0
  6
CONTINUOUS
 62
    7
 10
74.203263000000007
 20
140.517642
 11
75.651859999999999
 21
141.15133399999999
  0
LINE
  8
_0-0_0
  6
CONTINUOUS
 62
    7
 10
76.941996000000003
 20
143.52886799999999
 11
77.190952999999993
 21
140.78913
  0
LINE
  8
_0-0_0
  6
CONTINUOUS
 62
    7
 10
75.697108
 20
140.65338600000001
 11
77.145705000000007
 21
141.28707900000001
  0
LINE
  8
_0-0_0
  6
CONTINUOUS
 62
    7
 10
72.709417999999999
 20
140.38189700000001
 11
72.460459999999998
 21
143.121635
  0
LINE
  8
_0-0_0
  6
CONTINUOUS
 62
    7
 10
77.190952999999993
 20
140.78913
 11
78.684798000000001
 21
140.92487399999999
  0
LINE
  8
_0-0_0
  6
CONTINUOUS
 62
    7
 10
69.684798000000001
 20
141.42487399999999
 11
69.684798000000001
 21
143.92487399999999
  0
LINE
  8
_0-0_0
  6
CONTINUOUS
 62
    7
 10
69.684798000000001
 20
141.42487399999999
 11
71.108463
 21
141.67487399999999
  0
LINE
  8
_0-0_0
  6
CONTINUOUS
 62
    7
 10
78.435840999999996
 20
140.92487399999999
 11
78.435840999999996
 21
146.947497
  0
LINE
  8
_0-0_0
  6
CONTINUOUS
 62
    7
 10
78.684798000000001
 20
140.92487399999999
 11
88.684798000000001
 21
140.92487399999999
  0
LINE
  8
_0-0_0
  6
CONTINUOUS
 62
    7
 10
78.684798000000001
 20
146.92487399999999
 11
88.684798000000001
 21
146.92487399999999
  0
LINE
  8
_0-0_0
  6
CONTINUOUS
 62
    7
 10
91.184798000000001
 20
139.67487399999999
 11
90.184798000000001
 21
139.67487399999999
  0
LINE
  8
_0-0_0
  6
CONTINUOUS
 62
    7
 10
91.184798000000001
 20
139.67487399999999
 11
91.184798000000001
 21
148.17487399999999
  0
LINE
  8
_0-0_0
  6
CONTINUOUS
 62
    7
 10
91.184798000000001
 20
148.17487399999999
 11
90.184798000000001
 21
148.17487399999999
  0
LINE
  8
_0-0_0
  6
CONTINUOUS
 62
    7
 10
91.184798000000001
 20
147.67487399999999
 11
95.015726000000001
 21
147.67487399999999
  0
LINE
  8
_0-0_0
  6
CONTINUOUS
 62
    7
 10
92.184798000000001
 20
140.17487399999999
 11
92.184798000000001
 21
147.67487399999999
  0
LINE
  8
_0-0_0
  6
CONTINUOUS
 62
    7
 10
92.184798000000001
 20
143.62252599999999
 11
91.184798000000001
 21
144.74649600000001
  0
LINE
  8
_0-0_0
  6
CONTINUOUS
 62
    7
 10
92.184798000000001
 20
143.20245700000001
 11
91.184798000000001
 21
144.326427
  0
LINE
  8
_0-0_0
  6
CONTINUOUS
 62
    7
 10
95.015726000000001
 20
145.79987399999999
 11
92.184798000000001
 21
145.79987399999999
  0
ARC
  8
_0-0_0
  6
CONTINUOUS
 62
    7
 10
91.030726000000001
 20
143.92487399999999
 40
4.4040710000000001
 50
334.80233800000002
 51
25.19766199999998
  0
ARC
  8
_0-0_0
  6
CONTINUOUS
 62
    7
 10
94.176629000000005
 20
146.73737399999999
 40
1.25817
 50
311.82972699999999
 51
48.170273000000066
  0
LINE
  8
_0-0_0
  6
CONTINUOUS
 62
    7
 10
95.434798000000001
 20
141.11237399999999
 11
95.434798000000001
 21
146.73737399999999
  0
LINE
  8
_0-0_0
  6
CONTINUOUS
 62
    7
 10
95.015726000000001
 20
142.04987399999999
 11
92.184798000000001
 21
142.04987399999999
  0
ARC
  8
_0-0_0
  6
CONTINUOUS
 62
    7
 10
94.176629000000005
 20
141.11237399999999
 40
1.2581690000000001
 50
311.82971199999997
 51
48.170273000000066
  0
LINE
  8
_0-0_0
  6
CONTINUOUS
 62
    7
 10
95.015726000000001
 20
140.17487399999999
 11
91.184798000000001
 21
140.17487399999999
  0
LINE
  8
_0-0_0
  6
CENTER
 62
    7
 10
67.185201000000006
 20
143.92487399999999
 11
96.741764000000003
 21
143.92487399999999
  0
ENDBLK
  0
BLOCK
  2
-120-_D127
 70
   64
 10
0
 20
0
 30
0
  0
LINE
  8
_0-5__0-5__0-5__0-1_CSLAYER2
  6
CONTINUOUS
 62
    5
 10
58.313406999999998
 20
131.42487399999999
 11
34.784168999999999
 21
131.42487399999999
  0
LINE
  8
_0-5__0-5__0-5__0-1_CSLAYER2
  6
CONTINUOUS
 62
    5
 10
54.548042000000002
 20
143.92487399999999
 11
34.784168999999999
 21
143.92487399999999
  0
LINE
  8
_0-5__0-5__0-5__0-1_CSLAYER2
  6
CONTINUOUS
 62
    5
 10
35.784168999999999
 20
131.42487399999999
 11
35.784168999999999
 21
143.92487399999999
  0
INSERT
  2
-000-EDTIP_BLACKDOT_S
  8
_0-5__0-5__0-5__0-1_CSLAYER2
 10
35.784168999999999
 20
131.42487399999999
 41
1
 42
1
 50
270
  0
INSERT
  2
-001-EDTIP_BLACKDOT_E
  8
_0-5__0-5__0-5__0-1_CSLAYER2
 10
35.784168999999999
 20
143.92487399999999
 41
1
 42
1
 50
90
  0
TEXT
  8
_0-5__0-5__0-5__0-1_CSLAYER2
 62
    7
 10
34.784168000000001
 20
135.59488099999999
 40
3.2200000000000002
 41
0.645963
 50
90
  1
25
  0
ENDBLK
  0
BLOCK
  2
-121-_D128
 70
   64
 10
0
 20
0
 30
0
  0
LINE
  8
_0-5__0-5__0-5__0-1_CSLAYER2
  6
CONTINUOUS
 62
    5
 10
54.548042000000002
 20
54.598272999999999
 11
37.800167000000002
 21
54.598272999999999
  0
LINE
  8
_0-5__0-5__0-5__0-1_CSLAYER2
  6
CONTINUOUS
 62
    5
 10
58.313406999999998
 20
57.598272999999999
 11
37.800167000000002
 21
57.598272999999999
  0
LINE
  8
_0-5__0-5__0-5__0-1_CSLAYER2
  6
CONTINUOUS
 62
    5
 10
38.800167000000002
 20
54.598272999999999
 11
38.800167000000002
 21
57.598272999999999
  0
INSERT
  2
-000-EDTIP_BLACKDOT_S
  8
_0-5__0-5__0-5__0-1_CSLAYER2
 10
38.800167000000002
 20
54.598272999999999
 41
1
 42
1
 50
270
  0
INSERT
  2
-001-EDTIP_BLACKDOT_E
  8
_0-5__0-5__0-5__0-1_CSLAYER2
 10
38.800167000000002
 20
57.598272999999999
 41
1
 42
1
 50
90
  0
TEXT
  8
_0-5__0-5__0-5__0-1_CSLAYER2
 62
    7
 10
37.800167000000002
 20
55.123274000000002
 40
3.2200000000000002
 41
0.6055899999999998
 50
90
  1
6
  0
ENDBLK
  0
BLOCK
  2
-122-BLKF0129
 70
   64
 10
0
 20
0
 30
0
  0
TEXT
  8
_0-3_CSLAYER12
 62
    7
 10
214.83500699999999
 20
277.753265
 40
3.2200000000000002
 41
0.645963
 50
0
  1
(0),20
  0
LINE
  8
_0-3_CSLAYER12
  6
CONTINUOUS
 62
    5
 10
213.585003
 20
271.35290400000002
 11
213.585003
 21
277.75326999999999
  0
LINE
  8
_0-3_CSLAYER12
  6
CONTINUOUS
 62
    5
 10
214.585003
 20
276.75326999999999
 11
213.585003
 21
276.75326999999999
  0
LINE
  8
_0-3_CSLAYER12
  6
CONTINUOUS
 62
    5
 10
214.585003
 20
276.75326999999999
 11
213.585003
 21
276.75326999999999
  0
CIRCLE
  8
_0-3_CSLAYER12
  6
CONTINUOUS
 62
    5
 10
214.585003
 20
276.75326999999999
 40
0.5
  0
CIRCLE
  8
_0-3_CSLAYER12
  6
CONTINUOUS
 62
    5
 10
214.585003
 20
276.75326999999999
 40
0.25
  0
LINE
  8
_0-3_CSLAYER12
  6
CONTINUOUS
 62
    5
 10
219.245003
 20
276.75326999999999
 11
214.585003
 21
276.75326999999999
  0
LINE
  8
_0-3_CSLAYER12
  6
CONTINUOUS
 62
    5
 10
214.585003
 20
276.75326999999999
 11
215.585003
 21
276.75326999999999
  0
CIRCLE
  8
_0-3_CSLAYER12
  6
CONTINUOUS
 62
    5
 10
214.585003
 20
276.75326999999999
 40
0.5
  0
CIRCLE
  8
_0-3_CSLAYER12
  6
CONTINUOUS
 62
    5
 10
214.585003
 20
276.75326999999999
 40
0.25
  0
ENDBLK
  0
BLOCK
  2
-123-BLKF0130
 70
   64
 10
0
 20
0
 30
0
  0
TEXT
  8
_0-3_CSLAYER12
 62
    7
 10
163.84603899999999
 20
277.73159800000002
 40
3.2200000000000002
 41
0.645963
 50
0
  1
(30),20
  0
LINE
  8
_0-3_CSLAYER12
  6
CONTINUOUS
 62
    5
 10
179.585003
 20
276.75326999999999
 11
178.585003
 21
276.75326999999999
  0
LINE
  8
_0-3_CSLAYER12
  6
CONTINUOUS
 62
    5
 10
178.585003
 20
276.75326999999999
 11
179.585003
 21
276.75326999999999
  0
CIRCLE
  8
_0-3_CSLAYER12
  6
CONTINUOUS
 62
    5
 10
178.585003
 20
276.75326999999999
 40
0.5
  0
CIRCLE
  8
_0-3_CSLAYER12
  6
CONTINUOUS
 62
    5
 10
178.585003
 20
276.75326999999999
 40
0.25
  0
LINE
  8
_0-3_CSLAYER12
  6
CONTINUOUS
 62
    5
 10
178.585003
 20
276.75326999999999
 11
173.925003
 21
276.75326999999999
  0
LINE
  8
_0-3_CSLAYER12
  6
CONTINUOUS
 62
    5
 10
178.585003
 20
276.75326999999999
 11
177.585003
 21
276.75326999999999
  0
CIRCLE
  8
_0-3_CSLAYER12
  6
CONTINUOUS
 62
    5
 10
178.585003
 20
276.75326999999999
 40
0.5
  0
CIRCLE
  8
_0-3_CSLAYER12
  6
CONTINUOUS
 62
    5
 10
178.585003
 20
276.75326999999999
 40
0.25
  0
ENDBLK
  0
BLOCK
  2
-124-BLKF0131
 70
   64
 10
0
 20
0
 30
0
  0
TEXT
  8
_0-3_CSLAYER12
 62
    7
 10
214.83500699999999
 20
206.904144
 40
3.2200000000000002
 41
0.645963
 50
0
  1
(0),20
  0
LINE
  8
_0-3_CSLAYER12
  6
CONTINUOUS
 62
    5
 10
213.585003
 20
200.50378799999999
 11
213.585003
 21
206.904155
  0
LINE
  8
_0-3_CSLAYER12
  6
CONTINUOUS
 62
    5
 10
214.585003
 20
205.904155
 11
213.585003
 21
205.904155
  0
LINE
  8
_0-3_CSLAYER12
  6
CONTINUOUS
 62
    5
 10
214.585003
 20
205.904155
 11
213.585003
 21
205.904155
  0
CIRCLE
  8
_0-3_CSLAYER12
  6
CONTINUOUS
 62
    5
 10
214.585003
 20
205.904155
 40
0.5
  0
CIRCLE
  8
_0-3_CSLAYER12
  6
CONTINUOUS
 62
    5
 10
214.585003
 20
205.904155
 40
0.25
  0
LINE
  8
_0-3_CSLAYER12
  6
CONTINUOUS
 62
    5
 10
219.245003
 20
205.904155
 11
214.585003
 21
205.904155
  0
LINE
  8
_0-3_CSLAYER12
  6
CONTINUOUS
 62
    5
 10
214.585003
 20
205.904155
 11
215.585003
 21
205.904155
  0
CIRCLE
  8
_0-3_CSLAYER12
  6
CONTINUOUS
 62
    5
 10
214.585003
 20
205.904155
 40
0.5
  0
CIRCLE
  8
_0-3_CSLAYER12
  6
CONTINUOUS
 62
    5
 10
214.585003
 20
205.904155
 40
0.25
  0
ENDBLK
  0
BLOCK
  2
-125-BLKF0132
 70
   64
 10
0
 20
0
 30
0
  0
TEXT
  8
_0-3_CSLAYER12
 62
    7
 10
163.84603899999999
 20
206.88247699999999
 40
3.2200000000000002
 41
0.645963
 50
0
  1
(30),20
  0
LINE
  8
_0-3_CSLAYER12
  6
CONTINUOUS
 62
    5
 10
179.585003
 20
205.904155
 11
178.585003
 21
205.904155
  0
LINE
  8
_0-3_CSLAYER12
  6
CONTINUOUS
 62
    5
 10
178.585003
 20
205.904155
 11
179.585003
 21
205.904155
  0
CIRCLE
  8
_0-3_CSLAYER12
  6
CONTINUOUS
 62
    5
 10
178.585003
 20
205.904155
 40
0.5
  0
CIRCLE
  8
_0-3_CSLAYER12
  6
CONTINUOUS
 62
    5
 10
178.585003
 20
205.904155
 40
0.25
  0
LINE
  8
_0-3_CSLAYER12
  6
CONTINUOUS
 62
    5
 10
178.585003
 20
205.904155
 11
173.925003
 21
205.904155
  0
LINE
  8
_0-3_CSLAYER12
  6
CONTINUOUS
 62
    5
 10
178.585003
 20
205.904155
 11
177.585003
 21
205.904155
  0
CIRCLE
  8
_0-3_CSLAYER12
  6
CONTINUOUS
 62
    5
 10
178.585003
 20
205.904155
 40
0.5
  0
CIRCLE
  8
_0-3_CSLAYER12
  6
CONTINUOUS
 62
    5
 10
178.585003
 20
205.904155
 40
0.25
  0
ENDBLK
  0
BLOCK
  2
-126-_D133
 70
   64
 10
0
 20
0
 30
0
  0
LINE
  8
_0-3_CSLAYER12
  6
CONTINUOUS
 62
    5
 10
208.48667599999999
 20
177.2919
 11
208.48667599999999
 21
178.2919
  0
INSERT
  2
-000-EDTIP_BLACKDOT_S
  8
_0-3_CSLAYER12
 10
208.48667599999999
 20
177.2919
 41
1
 42
1
 50
270
  0
INSERT
  2
-001-EDTIP_BLACKDOT_E
  8
_0-3_CSLAYER12
 10
208.48667599999999
 20
178.2919
 41
1
 42
1
 50
90
  0
TEXT
  8
_0-3_CSLAYER12
 62
    7
 10
208.341217
 20
178.66256899999999
 40
3.2200000000000002
 41
0.645963
 50
90
  1
20
  0
ENDBLK
  0
ENDSEC
  0
SECTION
  2
ENTITIES
  0
LINE
  8
_0-0_0
  6
CONTINUOUS
 62
    4
 10
9.3011270000000081
 20
288.07539000000003
 11
411.19887299999999
 21
288.07539000000003
  0
LINE
  8
_0-0_0
  6
CONTINUOUS
 62
    4
 10
411.19887299999999
 20
288.07539000000003
 11
411.19887299999999
 21
8.9246109999999987
  0
LINE
  8
_0-0_0
  6
CONTINUOUS
 62
    4
 10
411.19887299999999
 20
8.9246109999999987
 11
9.3011270000000081
 21
8.9246109999999987
  0
LINE
  8
_0-0_0
  6
CONTINUOUS
 62
    4
 10
9.3011270000000081
 20
8.9246109999999987
 11
9.3011270000000081
 21
288.07539000000003
  0
LINE
  8
_0-0_0
  6
CONTINUOUS
 62
    4
 10
411.19887299999999
 20
23.924610999999999
 11
293.69887299999999
 21
23.924610999999999
  0
LINE
  8
_0-0_0
  6
CONTINUOUS
 62
    4
 10
381.19887299999999
 20
16.424610999999999
 11
311.19887299999999
 21
16.424610999999999
  0
LINE
  8
_0-0_0
  6
CONTINUOUS
 62
    4
 10
396.19887299999999
 20
23.924610999999999
 11
396.19887299999999
 21
8.9246109999999987
  0
TEXT
  8
_0-0_0
 62
    7
 10
398.14892600000002
 20
19.894345999999985
 40
3.2200000000000002
 41
0.6701859999999999
 50
0
  1
図　　　番
  0
LINE
  8
_0-0_0
  6
CONTINUOUS
 62
    4
 10
411.19887299999999
 20
18.924610999999999
 11
381.19887299999999
 21
18.924610999999999
  0
LINE
  8
_0-0_0
  6
CONTINUOUS
 62
    4
 10
311.19887299999999
 20
23.924610999999999
 11
311.19887299999999
 21
8.9246109999999987
  0
TEXT
  8
_0-0_0
 62
    7
 10
312.60742199999999
 20
20.370687000000004
 40
3.2200000000000002
 41
0.6055899999999998
 50
0
  1
品
  0
TEXT
  8
_0-0_0
 62
    7
 10
312.60742199999999
 20
17.150688000000002
 40
3.2200000000000002
 41
0.6055899999999998
 50
0
  1
名
  0
LINE
  8
_0-0_0
  6
CONTINUOUS
 62
    4
 10
316.19887299999999
 20
23.924610999999999
 11
316.19887299999999
 21
16.424610999999999
  0
LINE
  8
_0-0_0
  6
CONTINUOUS
 62
    4
 10
381.19887299999999
 20
23.924610999999999
 11
381.19887299999999
 21
8.9246109999999987
  0
TEXT
  8
_0-0_0
 62
    7
 10
383.14892600000002
 20
19.894345999999985
 40
3.2200000000000002
 41
0.6701859999999999
 50
0
  1
縮　　　尺
  0
LINE
  8
_0-3_CSLAYER12
  6
CONTINUOUS
 62
    3
 10
179.835003
 20
129.141899
 11
213.835003
 21
129.141899
  0
LINE
  8
_0-3_CSLAYER12
  6
CONTINUOUS
 62
    3
 10
179.835003
 20
178.2919
 11
213.835003
 21
178.2919
  0
LINE
  8
_0-3_CSLAYER12
  6
CONTINUOUS
 62
    3
 10
211.835003
 20
176.2919
 11
181.835003
 21
176.2919
  0
LINE
  8
_0-3_CSLAYER12
  6
CONTINUOUS
 62
    3
 10
181.835003
 20
178.2919
 11
181.835003
 21
129.141899
  0
LINE
  8
_0-3_CSLAYER12
  6
CONTINUOUS
 62
    3
 10
181.835003
 20
131.141899
 11
211.835003
 21
131.141899
  0
LINE
  8
_0-3_CSLAYER12
  6
CONTINUOUS
 62
    4
 10
214.835003
 20
196.53937500000001
 11
214.835003
 21
195.51382599999999
  0
TEXT
  8
_0-3_CSLAYER12
 62
    7
 10
184.41984600000001
 20
144.02681000000001
 40
2.9159999999999999
 41
0.7373969999999998
 50
0
  1
塗装色 ：C22-87C
  0
LINE
  8
_0-3_CSLAYER12
  6
CONTINUOUS
 62
    4
 10
214.835003
 20
127.623665
 11
214.835003
 21
205.95333299999999
  0
LINE
  8
_0-3_CSLAYER12
  6
CONTINUOUS
 62
    4
 10
214.835003
 20
109.47010299999999
 11
214.835003
 21
117.141899
  0
LINE
  8
_0-3_CSLAYER12
  6
CONTINUOUS
 62
    3
 10
211.835003
 20
129.141899
 11
211.835003
 21
178.2919
  0
LINE
  8
_0-3_CSLAYER12
  6
DOT_20
 62
    7
 10
215.460003
 20
127.64758500000001
 11
215.460003
 21
205.95333299999999
  0
LINE
  8
_0-3_CSLAYER12
  6
CONTINUOUS
 62
    4
 10
184.835003
 20
124.891899
 11
178.835003
 21
124.891899
  0
LINE
  8
_0-3_CSLAYER12
  6
CONTINUOUS
 62
    4
 10
185.335003
 20
126.641899
 11
214.835003
 21
127.623665
  0
LINE
  8
_0-3_CSLAYER12
  6
CONTINUOUS
 62
    7
 10
208.937828
 20
117.000736
 11
198.905406
 21
127.033158
  0
LINE
  8
_0-3_CSLAYER12
  6
CONTINUOUS
 62
    7
 10
208.25501800000001
 20
117.000736
 11
198.24776399999999
 21
127.00799000000001
  0
LINE
  8
_0-3_CSLAYER12
  6
CONTINUOUS
 62
    7
 10
207.495599
 20
117.000736
 11
197.51633799999999
 21
126.97999799999999
  0
LINE
  8
_0-3_CSLAYER12
  6
CONTINUOUS
 62
    4
 10
214.835003
 20
117.141899
 11
170.835003
 21
117.141899
  0
LINE
  8
_0-3_CSLAYER12
  6
CONTINUOUS
 62
    7
 10
221.254547
 20
143.11119199999999
 11
214.835003
 21
149.53073699999999
  0
LINE
  8
_0-3_CSLAYER12
  6
CONTINUOUS
 62
    7
 10
221.254547
 20
142.428382
 11
214.835003
 21
148.847927
  0
LINE
  8
_0-3_CSLAYER12
  6
CONTINUOUS
 62
    7
 10
221.254547
 20
141.66896299999999
 11
214.835003
 21
148.08850699999999
  0
LINE
  8
_0-3_CSLAYER12
  6
CONTINUOUS
 62
    7
 10
178.835003
 20
153.38510600000001
 11
170.835003
 21
160.88510600000001
  0
LINE
  8
_0-3_CSLAYER12
  6
CONTINUOUS
 62
    7
 10
178.835003
 20
152.70229499999999
 11
170.835003
 21
160.20229499999999
  0
LINE
  8
_0-3_CSLAYER12
  6
CONTINUOUS
 62
    7
 10
178.835003
 20
151.94287700000001
 11
170.835003
 21
159.44287700000001
  0
LINE
  8
_0-3_CSLAYER12
  6
CONTINUOUS
 62
    4
 10
170.835003
 20
210.99558999999999
 11
170.835003
 21
199.76070100000001
  0
LINE
  8
_0-3_CSLAYER12
  6
CONTINUOUS
 62
    4
 10
178.835003
 20
176.641899
 11
170.835003
 21
177.391899
  0
LINE
  8
_0-3_CSLAYER12
  6
CONTINUOUS
 62
    4
 10
178.835003
 20
124.891899
 11
178.835003
 21
205.95333299999999
  0
LINE
  8
_0-3_CSLAYER12
  6
CONTINUOUS
 62
    4
 10
185.335003
 20
126.641899
 11
184.835003
 21
124.891899
  0
TEXT
  8
_0-0_0
 62
    7
 10
333.58010899999999
 20
18.140568000000002
 40
3.2200000000000002
 41
0.6801239999999999
 50
0
  1
スリム　Ｌ　（民間低層用）
  0
INSERT
  2
-002-BLKF0008
  8
_0-0_0
 10
0.25
 20
0
 41
1
 42
1
 50
0
  0
INSERT
  2
-003-BLKF0009
  8
_0-0_0
 10
0.25
 20
0
 41
1
 42
1
 50
0
  0
INSERT
  2
-004-BLKF0010
  8
_0-0_0
 10
0.25
 20
0
 41
1
 42
1
 50
0
  0
INSERT
  2
-005-BLKF0011
  8
_0-0_0
 10
0.25
 20
0
 41
1
 42
1
 50
0
  0
INSERT
  2
-006-BLKF0012
  8
_0-0_0
 10
0.25
 20
0
 41
1
 42
1
 50
0
  0
LINE
  8
_0-3_CSLAYER12
  6
CONTINUOUS
 62
    3
 10
213.835003
 20
129.141899
 11
213.835003
 21
178.2919
  0
LINE
  8
_0-3_CSLAYER12
  6
CONTINUOUS
 62
    3
 10
179.835003
 20
178.2919
 11
179.835003
 21
129.141899
  0
INSERT
  2
-007-BLKF0013
  8
_0-0_0
 10
0.25
 20
0
 41
1
 42
1
 50
0
  0
INSERT
  2
-008-BLKF0014
  8
_0-0_0
 10
0.25
 20
0
 41
1
 42
1
 50
0
  0
INSERT
  2
-009-BLKF0015
  8
_0-0_0
 10
0.25
 20
0
 41
1
 42
1
 50
0
  0
INSERT
  2
-010-BLKF0016
  8
_0-0_0
 10
0.25
 20
0
 41
1
 42
1
 50
0
  0
TEXT
  8
_0-0_0
 62
    7
 10
394.30639600000001
 20
157.21289100000001
 40
3.2200000000000002
 41
0.6055899999999998
 50
90
  1
*
  0
LINE
  8
_0-0_0
  6
CONTINUOUS
 62
    7
 10
355.567025
 20
159.23578800000001
 11
366.29668199999998
 21
159.23578800000001
  0
LINE
  8
_0-0_0
  6
CONTINUOUS
 62
    7
 10
366.29668199999998
 20
159.23578800000001
 11
369.22093999999998
 21
166.027615
  0
LINE
  8
_0-0_0
  6
CONTINUOUS
 62
    7
 10
373.271683
 20
143.03578899999999
 11
373.271683
 21
166.027615
  0
LINE
  8
_0-0_0
  6
CONTINUOUS
 62
    7
 10
380.24668200000002
 20
159.23578800000001
 11
373.271683
 21
143.03578899999999
  0
LINE
  8
_0-0_0
  6
CONTINUOUS
 62
    7
 10
380.24668200000002
 20
159.23578800000001
 11
380.87501200000003
 21
159.23578800000001
  0
TEXT
  8
_0-0_0
 62
    7
 10
350.98635899999999
 20
30.205806999999993
 40
4.2119999999999997
 41
0.7399179999999998
 50
0
  1
縦 断 面 詳 細 S;1/2
  0
LINE
  8
_0-0_0
  6
CONTINUOUS
 62
    3
 10
372.59816499999999
 20
176.50954200000001
 11
372.59816499999999
 21
263.77417800000001
  0
LINE
  8
_0-0_0
  6
CONTINUOUS
 62
    7
 10
370.99816399999997
 20
176.50954200000001
 11
370.99816399999997
 21
247.046234
  0
LINE
  8
_0-0_0
  6
PHANTOM
 62
    7
 10
369.74816399999997
 20
176.50954200000001
 11
369.74816399999997
 21
247.046234
  0
LINE
  8
_0-0_0
  6
PHANTOM
 62
    7
 10
369.12316399999997
 20
176.50954200000001
 11
369.12316399999997
 21
247.046234
  0
LINE
  8
_0-0_0
  6
CONTINUOUS
 62
    7
 10
368.49816399999997
 20
176.50954200000001
 11
368.49816399999997
 21
247.046234
  0
LINE
  8
_0-0_0
  6
CONTINUOUS
 62
    3
 10
366.89816500000001
 20
176.50954200000001
 11
366.89816500000001
 21
263.77417800000001
  0
LINE
  8
_0-0_0
  6
PHANTOM
 62
    7
 10
370.37316399999997
 20
176.50954200000001
 11
370.37316399999997
 21
247.046234
  0
LINE
  8
_0-0_0
  6
CONTINUOUS
 62
    7
 10
368.49816399999997
 20
247.046234
 11
370.99816399999997
 21
247.046234
  0
INSERT
  2
-011-BLKF0017
  8
_0-0_0
 10
0.25
 20
0
 41
1
 42
1
 50
0
  0
LINE
  8
_0-0_0
  6
CONTINUOUS
 62
    7
 10
369.22093999999998
 20
166.027615
 11
373.271683
 21
175.435789
  0
LINE
  8
_0-0_0
  6
CONTINUOUS
 62
    7
 10
373.271683
 20
166.027615
 11
373.271683
 21
175.435789
  0
LINE
  8
_0-0_0
  6
CONTINUOUS
 62
    7
 10
380.87501200000003
 20
159.23578800000001
 11
390.929709
 21
159.23578800000001
  0
INSERT
  2
-012-BLKF0018
  8
_0-0_0
 10
0.25
 20
0
 41
1
 42
1
 50
0
  0
LINE
  8
_0-0_0
  6
CONTINUOUS
 62
    3
 10
372.59816499999999
 20
143.560992
 11
372.59816499999999
 21
40.705569999999994
  0
LINE
  8
_0-0_0
  6
CONTINUOUS
 62
    7
 10
370.99816399999997
 20
143.560992
 11
370.99816399999997
 21
57.433515
  0
LINE
  8
_0-0_0
  6
PHANTOM
 62
    7
 10
369.74816399999997
 20
143.560992
 11
369.74816399999997
 21
57.433515
  0
LINE
  8
_0-0_0
  6
PHANTOM
 62
    7
 10
369.12316399999997
 20
143.560992
 11
369.12316399999997
 21
57.433515
  0
LINE
  8
_0-0_0
  6
CONTINUOUS
 62
    7
 10
368.49816399999997
 20
143.560992
 11
368.49816399999997
 21
57.433515
  0
LINE
  8
_0-0_0
  6
CONTINUOUS
 62
    3
 10
366.89816500000001
 20
143.560992
 11
366.89816500000001
 21
40.705569999999994
  0
LINE
  8
_0-0_0
  6
PHANTOM
 62
    7
 10
370.37316399999997
 20
143.560992
 11
370.37316399999997
 21
57.433515
  0
LINE
  8
_0-0_0
  6
CONTINUOUS
 62
    7
 10
368.49816399999997
 20
57.433515
 11
370.99816399999997
 21
57.433515
  0
INSERT
  2
-013-BLKF0019
  8
_0-0_0
 10
0.25
 20
0
 41
1
 42
1
 50
0
  0
INSERT
  2
-014-BLKF0020
  8
_0-0_0
 10
0.25
 20
0
 41
1
 42
1
 50
0
  0
TEXT
  8
_0-3_CSLAYER12
 62
    7
 10
174.22190900000001
 20
110.261566
 40
4.2119999999999997
 41
0.7373969999999997
 50
0
  1
立　面　図　Ｓ；1/20
  0
TEXT
  8
_0-3_CSLAYER12
 62
    7
 10
139.285721
 20
202.30064400000001
 40
4.9000000000000004
 41
0.7142859999999997
 50
0
  1
手 摺 側
  0
LINE
  8
_0-3_CSLAYER12
  6
CONTINUOUS
 62
    7
 10
157.726505
 20
201.72948199999999
 11
138.56354200000001
 21
201.72948199999999
  0
LINE
  8
_0-3_CSLAYER12
  6
CONTINUOUS
 62
    7
 10
138.56354200000001
 20
201.72948199999999
 11
138.56354200000001
 21
207.63634500000001
  0
LINE
  8
_0-3_CSLAYER12
  6
CONTINUOUS
 62
    7
 10
138.56354200000001
 20
207.63634500000001
 11
157.726505
 21
207.63634500000001
  0
LINE
  8
_0-3_CSLAYER12
  6
CONTINUOUS
 62
    7
 10
157.726505
 20
207.63634500000001
 11
157.726505
 21
201.72948199999999
  0
TEXT
  8
_0-3_CSLAYER12
 62
    7
 10
238.49121099999999
 20
203.980087
 40
4.9000000000000004
 41
0.7142859999999997
 50
0
  1
住　戸　側
  0
LINE
  8
_0-3_CSLAYER12
  6
CONTINUOUS
 62
    7
 10
257.14758699999999
 20
203.21222299999999
 11
237.98462499999999
 21
203.21222299999999
  0
LINE
  8
_0-3_CSLAYER12
  6
CONTINUOUS
 62
    7
 10
237.98462499999999
 20
203.21222299999999
 11
237.98462499999999
 21
209.11908600000001
  0
LINE
  8
_0-3_CSLAYER12
  6
CONTINUOUS
 62
    7
 10
237.98462499999999
 20
209.11908600000001
 11
257.14758699999999
 21
209.11908600000001
  0
LINE
  8
_0-3_CSLAYER12
  6
CONTINUOUS
 62
    7
 10
257.14758699999999
 20
209.11908600000001
 11
257.14758699999999
 21
203.21222299999999
  0
TEXT
  8
_0-0_0
 62
    7
 10
381.42517099999998
 20
15.530971999999991
 40
3.2200000000000002
 41
0.6661489999999998
 50
0
  1
A-3 
  0
TEXT
  8
_0-0_0
 62
    7
 10
386.72183200000001
 20
12.584244000000012
 40
3.2200000000000002
 41
0.6661489999999998
 50
0
  1
1/20
  0
TEXT
  8
_0-0_0
 62
    7
 10
386.72183200000001
 20
9.3642439999999851
 40
3.2200000000000002
 41
0.65942
 50
0
  1
1/2
  0
TEXT
  8
_0-0_0
 62
    7
 10
400.345642
 20
12.142130000000009
 40
3.2200000000000002
 41
0.65942
 50
0
  1
L-6
  0
INSERT
  2
-015-BLKF0021
  8
_0-0_0
 10
0.25
 20
0
 41
1
 42
1
 50
0
  0
TEXT
  8
_0-0_0
 62
    7
 10
404.12185699999998
 20
149.832291
 40
3.2200000000000002
 41
0.6055899999999998
 50
90
  1
*
  0
LINE
  8
_0-3_CSLAYER12
  6
CONTINUOUS
 62
    4
 10
178.835003
 20
179.7919
 11
214.835003
 21
179.7919
  0
INSERT
  2
-016-BLKF0022
  8
_0-0_0
 10
0.25
 20
0
 41
1
 42
1
 50
0
  0
TEXT
  8
_0-3_CSLAYER12
 62
    7
 10
215.69528199999999
 20
120.69895200000001
 40
3.2200000000000002
 41
0.6801239999999999
 50
0
  1
* 寸法は現場指示に依る。
  0
LINE
  8
_0-0_0
  6
CONTINUOUS
 62
    4
 10
293.69887299999999
 20
23.924610999999999
 11
293.69887299999999
 21
8.9246109999999987
  0
LINE
  8
_0-0_0
  6
CONTINUOUS
 62
    4
 10
311.19887299999999
 20
18.924610999999999
 11
293.69887299999999
 21
18.924610999999999
  0
TEXT
  8
_0-0_0
 62
    7
 10
297.36468500000001
 20
19.894345999999985
 40
3.2200000000000002
 41
0.6661489999999998
 50
0
  1
枠　　色
  0
INSERT
  2
-017-BLKF0023
  8
_0-0_0
 10
0.25
 20
0
 41
1
 42
1
 50
0
  0
LINE
  8
_0-3_CSLAYER12
  6
CONTINUOUS
 62
    3
 10
214.835003
 20
171.5419
 11
213.835003
 21
171.5419
  0
LINE
  8
_0-3_CSLAYER12
  6
CONTINUOUS
 62
    3
 10
214.835003
 20
170.0419
 11
213.835003
 21
170.0419
  0
LINE
  8
_0-3_CSLAYER12
  6
CENTER
 62
    7
 10
213.807715
 20
170.7919
 11
212.52262400000001
 21
170.7919
  0
LINE
  8
_0-3_CSLAYER12
  6
CENTER
 62
    7
 10
213.085003
 20
171.50873999999999
 11
213.085003
 21
170.30230299999999
  0
INSERT
  2
-018-BLKF0024
  8
_0-0_0
 10
0.25
 20
0
 41
1
 42
1
 50
0
  0
CIRCLE
  8
_0-3_CSLAYER12
  6
CONTINUOUS
 62
    7
 10
213.085003
 20
170.7919
 40
0.357986
  0
LINE
  8
_0-3_CSLAYER12
  6
CENTER
 62
    7
 10
214.03720999999999
 20
170.7919
 11
217.088201
 21
170.7919
  0
LINE
  8
_0-3_CSLAYER12
  6
DASHED
 62
    7
 10
211.93500299999999
 20
170.0419
 11
211.93500299999999
 21
171.5419
  0
LINE
  8
_0-3_CSLAYER12
  6
DASHED
 62
    7
 10
213.835003
 20
171.5419
 11
211.93500299999999
 21
171.5419
  0
LINE
  8
_0-3_CSLAYER12
  6
DASHED
 62
    7
 10
213.835003
 20
170.0419
 11
211.93500299999999
 21
170.0419
  0
INSERT
  2
-019-BLKF0025
  8
_0-0_0
 10
0.25
 20
0
 41
1
 42
1
 50
0
  0
INSERT
  2
-020-BLKF0026
  8
_0-0_0
 10
0.25
 20
0
 41
1
 42
1
 50
0
  0
LINE
  8
_0-3_CSLAYER12
  6
CENTER
 62
    7
 10
216.95411300000001
 20
170.7919
 11
214.04121000000001
 21
170.7919
  0
LINE
  8
_0-3_CSLAYER12
  6
CONTINUOUS
 62
    3
 10
214.68500299999999
 20
171.5419
 11
214.68500299999999
 21
170.0419
  0
LINE
  8
_0-3_CSLAYER12
  6
CONTINUOUS
 62
    3
 10
214.835003
 20
137.391899
 11
213.835003
 21
137.391899
  0
LINE
  8
_0-3_CSLAYER12
  6
CONTINUOUS
 62
    3
 10
214.835003
 20
135.891899
 11
213.835003
 21
135.891899
  0
LINE
  8
_0-3_CSLAYER12
  6
CENTER
 62
    7
 10
213.807715
 20
136.641899
 11
212.52262400000001
 21
136.641899
  0
LINE
  8
_0-3_CSLAYER12
  6
CENTER
 62
    7
 10
213.085003
 20
137.35874000000001
 11
213.085003
 21
136.15230299999999
  0
INSERT
  2
-021-BLKF0027
  8
_0-0_0
 10
0.25
 20
0
 41
1
 42
1
 50
0
  0
CIRCLE
  8
_0-3_CSLAYER12
  6
CONTINUOUS
 62
    7
 10
213.085003
 20
136.641899
 40
0.357986
  0
LINE
  8
_0-3_CSLAYER12
  6
CENTER
 62
    7
 10
214.03720999999999
 20
136.641899
 11
217.088201
 21
136.641899
  0
LINE
  8
_0-3_CSLAYER12
  6
DASHED
 62
    7
 10
211.93500299999999
 20
135.891899
 11
211.93500299999999
 21
137.391899
  0
LINE
  8
_0-3_CSLAYER12
  6
DASHED
 62
    7
 10
213.835003
 20
137.391899
 11
211.93500299999999
 21
137.391899
  0
LINE
  8
_0-3_CSLAYER12
  6
DASHED
 62
    7
 10
213.835003
 20
135.891899
 11
211.93500299999999
 21
135.891899
  0
INSERT
  2
-022-BLKF0028
  8
_0-0_0
 10
0.25
 20
0
 41
1
 42
1
 50
0
  0
INSERT
  2
-023-BLKF0029
  8
_0-0_0
 10
0.25
 20
0
 41
1
 42
1
 50
0
  0
LINE
  8
_0-3_CSLAYER12
  6
CENTER
 62
    7
 10
216.95411300000001
 20
136.641899
 11
214.04121000000001
 21
136.641899
  0
LINE
  8
_0-3_CSLAYER12
  6
CONTINUOUS
 62
    3
 10
214.68500299999999
 20
137.391899
 11
214.68500299999999
 21
135.891899
  0
LINE
  8
_0-3_CSLAYER12
  6
CONTINUOUS
 62
    3
 10
178.835003
 20
171.5419
 11
179.835003
 21
171.5419
  0
LINE
  8
_0-3_CSLAYER12
  6
CONTINUOUS
 62
    3
 10
178.835003
 20
170.0419
 11
179.835003
 21
170.0419
  0
LINE
  8
_0-3_CSLAYER12
  6
CENTER
 62
    7
 10
179.862291
 20
170.7919
 11
181.147381
 21
170.7919
  0
LINE
  8
_0-3_CSLAYER12
  6
CENTER
 62
    7
 10
180.585003
 20
171.50873999999999
 11
180.585003
 21
170.30230299999999
  0
INSERT
  2
-024-BLKF0030
  8
_0-0_0
 10
0.25
 20
0
 41
1
 42
1
 50
0
  0
CIRCLE
  8
_0-3_CSLAYER12
  6
CONTINUOUS
 62
    7
 10
180.585003
 20
170.7919
 40
0.357986
  0
LINE
  8
_0-3_CSLAYER12
  6
CENTER
 62
    7
 10
179.63279600000001
 20
170.7919
 11
176.581805
 21
170.7919
  0
LINE
  8
_0-3_CSLAYER12
  6
DASHED
 62
    7
 10
181.73500300000001
 20
170.0419
 11
181.73500300000001
 21
171.5419
  0
LINE
  8
_0-3_CSLAYER12
  6
DASHED
 62
    7
 10
179.835003
 20
171.5419
 11
181.73500300000001
 21
171.5419
  0
LINE
  8
_0-3_CSLAYER12
  6
DASHED
 62
    7
 10
179.835003
 20
170.0419
 11
181.73500300000001
 21
170.0419
  0
INSERT
  2
-025-BLKF0031
  8
_0-0_0
 10
0.25
 20
0
 41
1
 42
1
 50
0
  0
INSERT
  2
-026-BLKF0032
  8
_0-0_0
 10
0.25
 20
0
 41
1
 42
1
 50
0
  0
LINE
  8
_0-3_CSLAYER12
  6
CENTER
 62
    7
 10
176.715892
 20
170.7919
 11
179.62879599999999
 21
170.7919
  0
LINE
  8
_0-3_CSLAYER12
  6
CONTINUOUS
 62
    3
 10
178.98500300000001
 20
171.5419
 11
178.98500300000001
 21
170.0419
  0
LINE
  8
_0-3_CSLAYER12
  6
CONTINUOUS
 62
    3
 10
178.835003
 20
137.391899
 11
179.835003
 21
137.391899
  0
LINE
  8
_0-3_CSLAYER12
  6
CONTINUOUS
 62
    3
 10
178.835003
 20
135.891899
 11
179.835003
 21
135.891899
  0
LINE
  8
_0-3_CSLAYER12
  6
CENTER
 62
    7
 10
179.862291
 20
136.641899
 11
181.147381
 21
136.641899
  0
LINE
  8
_0-3_CSLAYER12
  6
CENTER
 62
    7
 10
180.585003
 20
137.35874000000001
 11
180.585003
 21
136.15230299999999
  0
INSERT
  2
-027-BLKF0033
  8
_0-0_0
 10
0.25
 20
0
 41
1
 42
1
 50
0
  0
CIRCLE
  8
_0-3_CSLAYER12
  6
CONTINUOUS
 62
    7
 10
180.585003
 20
136.641899
 40
0.357986
  0
LINE
  8
_0-3_CSLAYER12
  6
CENTER
 62
    7
 10
179.63279600000001
 20
136.641899
 11
176.581805
 21
136.641899
  0
LINE
  8
_0-3_CSLAYER12
  6
DASHED
 62
    7
 10
181.73500300000001
 20
135.891899
 11
181.73500300000001
 21
137.391899
  0
LINE
  8
_0-3_CSLAYER12
  6
DASHED
 62
    7
 10
179.835003
 20
137.391899
 11
181.73500300000001
 21
137.391899
  0
LINE
  8
_0-3_CSLAYER12
  6
DASHED
 62
    7
 10
179.835003
 20
135.891899
 11
181.73500300000001
 21
135.891899
  0
INSERT
  2
-028-BLKF0034
  8
_0-0_0
 10
0.25
 20
0
 41
1
 42
1
 50
0
  0
INSERT
  2
-029-BLKF0035
  8
_0-0_0
 10
0.25
 20
0
 41
1
 42
1
 50
0
  0
LINE
  8
_0-3_CSLAYER12
  6
CENTER
 62
    7
 10
176.715892
 20
136.641899
 11
179.62879599999999
 21
136.641899
  0
LINE
  8
_0-3_CSLAYER12
  6
CONTINUOUS
 62
    3
 10
178.98500300000001
 20
137.391899
 11
178.98500300000001
 21
135.891899
  0
TEXT
  8
_0-3_CSLAYER12
 62
    7
 10
177.361816
 20
228.29333500000001
 40
4.2119999999999997
 41
0.7373969999999997
 50
0
  1
平　面　図　Ｓ；1/20
  0
LINE
  8
_0-0_0
  6
CONTINUOUS
 62
    3
 10
373.74816399999997
 20
263.77417800000001
 11
373.74816399999997
 21
189.00308000000001
  0
LINE
  8
_0-0_0
  6
CONTINUOUS
 62
    3
 10
365.74816399999997
 20
263.77417800000001
 11
365.74816399999997
 21
188.18068099999999
  0
INSERT
  2
-030-BLKF0036
  8
_0-0_0
 10
0.25
 20
0
 41
1
 42
1
 50
0
  0
LINE
  8
_0-0_0
  6
CONTINUOUS
 62
    3
 10
373.74816399999997
 20
133.24442199999999
 11
373.74816399999997
 21
40.705569999999994
  0
LINE
  8
_0-0_0
  6
CONTINUOUS
 62
    3
 10
365.74816399999997
 20
133.73786200000001
 11
365.74816399999997
 21
40.705569999999994
  0
TEXT
  8
_0-3_CSLAYER12
 62
    7
 10
191.69734199999999
 20
140.05961600000001
 40
2.9159999999999999
 41
0.7197529999999997
 50
0
  1
アイボリ-
  0
LINE
  8
_0-3_CSLAYER12
  6
CONTINUOUS
 62
    4
 10
170.835003
 20
193.00157999999999
 11
170.835003
 21
191.10572999999999
  0
LINE
  8
_0-3_CSLAYER12
  6
CONTINUOUS
 62
    4
 10
170.835003
 20
184.01689400000001
 11
170.835003
 21
117.141899
  0
INSERT
  2
-031-_D38
  8
_0-0_0
 10
0.25
 20
0
 41
1
 42
1
 50
0
  0
INSERT
  2
-032-BLKF0039
  8
_0-0_0
 10
0.25
 20
0
 41
1
 42
1
 50
0
  0
LINE
  8
_0-0_0
  6
CENTER
 62
    7
 10
335.92778900000002
 20
57.598273000000006
 11
60.563406999999984
 21
57.598273000000006
  0
INSERT
  2
-033-_D40
  8
_0-0_0
 10
0.25
 20
0
 41
1
 42
1
 50
0
  0
TEXT
  8
_0-0_0
 62
    7
 10
307.50131199999998
 20
79.104774000000006
 40
4.9000000000000004
 41
0.7142859999999997
 50
0
  1
住　戸　側
  0
LINE
  8
_0-0_0
  6
CONTINUOUS
 62
    4
 10
88.934798000000001
 20
12.768919000000011
 11
88.934798000000001
 21
88.952785000000006
  0
LINE
  8
_0-0_0
  6
CONTINUOUS
 62
    7
 10
190.811837
 20
72.471491
 11
190.811837
 21
66.093349000000003
  0
LINE
  8
_0-0_0
  6
CONTINUOUS
 62
    7
 10
190.811837
 20
66.093349000000003
 11
174.61183700000001
 21
61.181601999999998
  0
LINE
  8
_0-0_0
  6
CONTINUOUS
 62
    7
 10
174.61183700000001
 20
61.181601999999998
 11
207.01183700000001
 21
61.181601999999998
  0
LINE
  8
_0-0_0
  6
CONTINUOUS
 62
    7
 10
190.811837
 20
55.206603000000001
 11
207.01183700000001
 21
61.181601999999998
  0
LINE
  8
_0-0_0
  6
CONTINUOUS
 62
    7
 10
190.811837
 20
43.455854000000002
 11
190.811837
 21
55.206603000000001
  0
TEXT
  8
_0-0_0
 62
    7
 10
171.55096399999999
 20
17.28296499999999
 40
4.2119999999999997
 41
0.7399179999999998
 50
0
  1
横 断 面 詳 細 S;1/2
  0
LINE
  8
_0-0_0
  6
CONTINUOUS
 62
    7
 10
71.340710000000001
 20
67.948340000000002
 11
88.934798000000001
 21
50.354250000000008
  0
LINE
  8
_0-0_0
  6
CONTINUOUS
 62
    7
 10
71.340710000000001
 20
66.021038000000004
 11
88.934798000000001
 21
48.426949000000008
  0
LINE
  8
_0-0_0
  6
CONTINUOUS
 62
    7
 10
71.340710000000001
 20
64.093737000000004
 11
88.934798000000001
 21
46.499648000000008
  0
TEXT
  8
_0-0_0
 62
    7
 10
29.318079000000012
 20
78.908089000000004
 40
4.9000000000000004
 41
0.7142859999999997
 50
0
  1
手 摺 側
  0
LINE
  8
_0-0_0
  6
CONTINUOUS
 62
    7
 10
111.021401
 20
56.348273000000006
 11
177.84689499999999
 21
56.348273000000006
  0
LINE
  8
_0-0_0
  6
PHANTOM
 62
    7
 10
111.021401
 20
57.981606999999997
 11
172.00679700000001
 21
57.981606999999997
  0
LINE
  8
_0-0_0
  6
PHANTOM
 62
    7
 10
111.021401
 20
57.314940000000007
 11
172.00679700000001
 21
57.314940000000007
  0
LINE
  8
_0-0_0
  6
CONTINUOUS
 62
    7
 10
111.021401
 20
58.848273000000006
 11
177.84689499999999
 21
58.848273000000006
  0
LINE
  8
_0-0_0
  6
CONTINUOUS
 62
    3
 10
93.934798000000001
 20
61.598273000000006
 11
96.059798000000001
 21
61.598273000000006
  0
LINE
  8
_0-0_0
  6
CONTINUOUS
 62
    7
 10
47.758899999999983
 20
78.336912999999996
 11
28.595936999999992
 21
78.336912999999996
  0
LINE
  8
_0-0_0
  6
CONTINUOUS
 62
    7
 10
28.595936999999992
 20
78.336912999999996
 11
28.595936999999992
 21
84.243775999999997
  0
LINE
  8
_0-0_0
  6
CONTINUOUS
 62
    7
 10
28.595936999999992
 20
84.243775999999997
 11
47.758899999999983
 21
84.243775999999997
  0
LINE
  8
_0-0_0
  6
CONTINUOUS
 62
    7
 10
47.758899999999983
 20
84.243775999999997
 11
47.758899999999983
 21
78.336912999999996
  0
INSERT
  2
-034-BLKF0041
  8
_0-0_0
 10
0.25
 20
0
 41
1
 42
1
 50
0
  0
INSERT
  2
-035-BLKF0042
  8
_0-0_0
 10
0.25
 20
0
 41
1
 42
1
 50
0
  0
INSERT
  2
-036-BLKF0043
  8
_0-0_0
 10
0.25
 20
0
 41
1
 42
1
 50
0
  0
INSERT
  2
-037-BLKF0044
  8
_0-0_0
 10
0.25
 20
0
 41
1
 42
1
 50
0
  0
INSERT
  2
-038-BLKF0045
  8
_0-0_0
 10
0.25
 20
0
 41
1
 42
1
 50
0
  0
LINE
  8
_0-0_0
  6
CONTINUOUS
 62
    3
 10
117.934798
 20
62.598273000000006
 11
117.934798
 21
61.598273000000006
  0
LINE
  8
_0-0_0
  6
CONTINUOUS
 62
    7
 10
111.021401
 20
58.848273000000006
 11
111.021401
 21
56.348273000000006
  0
LINE
  8
_0-0_0
  6
CONTINUOUS
 62
    3
 10
100.309798
 20
61.598273000000006
 11
172.00679700000001
 21
61.598273000000006
  0
INSERT
  2
-039-BLKF0046
  8
_0-0_0
 10
0.25
 20
0
 41
1
 42
1
 50
0
  0
INSERT
  2
-040-BLKF0047
  8
_0-0_0
 10
0.25
 20
0
 41
1
 42
1
 50
0
  0
LINE
  8
_0-0_0
  6
CENTER
 62
    7
 10
88.934798000000001
 20
49.598273000000006
 11
90.434798000000001
 21
49.598273000000006
  0
LINE
  8
_0-0_0
  6
PHANTOM
 62
    7
 10
99.834798000000006
 20
63.098273000000006
 11
99.834798000000006
 21
61.598273000000006
  0
INSERT
  2
-041-BLKF0048
  8
_0-0_0
 10
0.25
 20
0
 41
1
 42
1
 50
0
  0
INSERT
  2
-042-BLKF0049
  8
_0-0_0
 10
0.25
 20
0
 41
1
 42
1
 50
0
  0
INSERT
  2
-043-BLKF0050
  8
_0-0_0
 10
0.25
 20
0
 41
1
 42
1
 50
0
  0
INSERT
  2
-044-BLKF0051
  8
_0-0_0
 10
0.25
 20
0
 41
1
 42
1
 50
0
  0
TEXT
  8
_0-0_0
 62
    7
 10
182.80508399999999
 20
24.128506000000002
 40
3.2200000000000002
 41
0.6661489999999998
 50
0
  1
開口＝Ｃ
  0
INSERT
  2
-045-BLKF0052
  8
_0-0_0
 10
0.25
 20
0
 41
1
 42
1
 50
0
  0
INSERT
  2
-046-BLKF0053
  8
_0-0_0
 10
0.25
 20
0
 41
1
 42
1
 50
0
  0
INSERT
  2
-047-BLKF0054
  8
_0-0_0
 10
0.25
 20
0
 41
1
 42
1
 50
0
  0
INSERT
  2
-048-BLKF0055
  8
_0-0_0
 10
0.25
 20
0
 41
1
 42
1
 50
0
  0
LINE
  8
_0-0_0
  6
CONTINUOUS
 62
    3
 10
105.309798
 20
53.598273000000006
 11
172.00679700000001
 21
53.598273000000006
  0
INSERT
  2
-049-BLKF0056
  8
_0-0_0
 10
0.25
 20
0
 41
1
 42
1
 50
0
  0
INSERT
  2
-050-BLKF0057
  8
_0-0_0
 10
0.25
 20
0
 41
1
 42
1
 50
0
  0
INSERT
  2
-051-BLKF0058
  8
_0-0_0
 10
0.25
 20
0
 41
1
 42
1
 50
0
  0
INSERT
  2
-052-_D59
  8
_0-0_0
 10
0.25
 20
0
 41
1
 42
1
 50
0
  0
INSERT
  2
-053-_D60
  8
_0-0_0
 10
0.25
 20
0
 41
1
 42
1
 50
0
  0
INSERT
  2
-054-BLKF0061
  8
_0-0_0
 10
0.25
 20
0
 41
1
 42
1
 50
0
  0
INSERT
  2
-055-_D62
  8
_0-0_0
 10
0.25
 20
0
 41
1
 42
1
 50
0
  0
INSERT
  2
-056-_D63
  8
_0-0_0
 10
0.25
 20
0
 41
1
 42
1
 50
0
  0
TEXT
  8
_0-0_0
 62
    7
 10
59.753284000000008
 20
88.749236999999994
 40
3.2200000000000002
 41
0.678995
 50
0
  1
フリー&ストッフﾟホ゛ルト
  0
INSERT
  2
-057-_D64
  8
_0-0_0
 10
0.25
 20
0
 41
1
 42
1
 50
0
  0
INSERT
  2
-058-_D65
  8
_0-0_0
 10
0.25
 20
0
 41
1
 42
1
 50
0
  0
INSERT
  2
-059-_D66
  8
_0-0_0
 10
0.25
 20
0
 41
1
 42
1
 50
0
  0
INSERT
  2
-060-_D67
  8
_0-0_0
 10
0.25
 20
0
 41
1
 42
1
 50
0
  0
LINE
  8
_0-0_0
  6
CONTINUOUS
 62
    4
 10
292.68887599999999
 20
12.768919000000011
 11
292.68887599999999
 21
88.952785000000006
  0
LINE
  8
_0-0_0
  6
CONTINUOUS
 62
    7
 10
190.811837
 20
72.471491
 11
190.811837
 21
66.093349000000003
  0
LINE
  8
_0-0_0
  6
CONTINUOUS
 62
    7
 10
207.01183700000001
 20
61.181601999999998
 11
174.61183700000001
 21
61.181601999999998
  0
LINE
  8
_0-0_0
  6
CONTINUOUS
 62
    7
 10
190.811837
 20
43.455854000000002
 11
190.811837
 21
55.206603000000001
  0
LINE
  8
_0-0_0
  6
CONTINUOUS
 62
    7
 10
270.60227400000002
 20
56.348273000000006
 11
203.77678
 21
56.348273000000006
  0
LINE
  8
_0-0_0
  6
PHANTOM
 62
    7
 10
270.60227400000002
 20
57.981606999999997
 11
209.61687699999999
 21
57.981606999999997
  0
LINE
  8
_0-0_0
  6
PHANTOM
 62
    7
 10
270.60227400000002
 20
57.314940000000007
 11
209.61687699999999
 21
57.314940000000007
  0
LINE
  8
_0-0_0
  6
CONTINUOUS
 62
    7
 10
270.60227400000002
 20
58.848273000000006
 11
203.77678
 21
58.848273000000006
  0
LINE
  8
_0-0_0
  6
CONTINUOUS
 62
    3
 10
287.68887599999999
 20
61.598273000000006
 11
285.56387599999999
 21
61.598273000000006
  0
LINE
  8
_0-0_0
  6
CONTINUOUS
 62
    3
 10
263.68887599999999
 20
62.598273000000006
 11
263.68887599999999
 21
61.598273000000006
  0
LINE
  8
_0-0_0
  6
CONTINUOUS
 62
    7
 10
270.60227400000002
 20
58.848273000000006
 11
270.60227400000002
 21
56.348273000000006
  0
LINE
  8
_0-0_0
  6
CONTINUOUS
 62
    3
 10
281.31387599999999
 20
61.598273000000006
 11
209.61687699999999
 21
61.598273000000006
  0
INSERT
  2
-061-BLKF0068
  8
_0-0_0
 10
0.25
 20
0
 41
1
 42
1
 50
0
  0
LINE
  8
_0-0_0
  6
CENTER
 62
    7
 10
292.68887599999999
 20
49.598273000000006
 11
291.18887599999999
 21
49.598273000000006
  0
LINE
  8
_0-0_0
  6
PHANTOM
 62
    7
 10
281.78887600000002
 20
63.098273000000006
 11
281.78887600000002
 21
61.598273000000006
  0
INSERT
  2
-062-BLKF0069
  8
_0-0_0
 10
0.25
 20
0
 41
1
 42
1
 50
0
  0
INSERT
  2
-063-BLKF0070
  8
_0-0_0
 10
0.25
 20
0
 41
1
 42
1
 50
0
  0
INSERT
  2
-064-BLKF0071
  8
_0-0_0
 10
0.25
 20
0
 41
1
 42
1
 50
0
  0
INSERT
  2
-065-BLKF0072
  8
_0-0_0
 10
0.25
 20
0
 41
1
 42
1
 50
0
  0
LINE
  8
_0-0_0
  6
CONTINUOUS
 62
    3
 10
276.31387599999999
 20
53.598273000000006
 11
209.61687699999999
 21
53.598273000000006
  0
INSERT
  2
-066-BLKF0073
  8
_0-0_0
 10
0.25
 20
0
 41
1
 42
1
 50
0
  0
INSERT
  2
-067-BLKF0074
  8
_0-0_0
 10
0.25
 20
0
 41
1
 42
1
 50
0
  0
INSERT
  2
-068-_D75
  8
_0-0_0
 10
0.25
 20
0
 41
1
 42
1
 50
0
  0
INSERT
  2
-069-_D76
  8
_0-0_0
 10
0.25
 20
0
 41
1
 42
1
 50
0
  0
INSERT
  2
-070-BLKF0077
  8
_0-0_0
 10
0.25
 20
0
 41
1
 42
1
 50
0
  0
INSERT
  2
-071-_D78
  8
_0-0_0
 10
0.25
 20
0
 41
1
 42
1
 50
0
  0
INSERT
  2
-072-_D79
  8
_0-0_0
 10
0.25
 20
0
 41
1
 42
1
 50
0
  0
INSERT
  2
-073-_D80
  8
_0-0_0
 10
0.25
 20
0
 41
1
 42
1
 50
0
  0
INSERT
  2
-074-_D81
  8
_0-0_0
 10
0.25
 20
0
 41
1
 42
1
 50
0
  0
LINE
  8
_0-0_0
  6
CONTINUOUS
 62
    7
 10
306.99472200000002
 20
84.243776999999994
 11
326.15768600000001
 21
84.243776999999994
  0
LINE
  8
_0-0_0
  6
CONTINUOUS
 62
    7
 10
326.15768600000001
 20
78.336912999999996
 11
306.99472200000002
 21
78.336912999999996
  0
LINE
  8
_0-0_0
  6
CONTINUOUS
 62
    7
 10
326.15768600000001
 20
84.243776999999994
 11
326.15768600000001
 21
78.336912999999996
  0
LINE
  8
_0-3_CSLAYER12
  6
CONTINUOUS
 62
    4
 10
214.835003
 20
279.482393
 11
214.835003
 21
256.89836100000002
  0
LINE
  8
_0-3_CSLAYER12
  6
DASHED
 62
    7
 10
215.460003
 20
278.49552499999999
 11
215.460003
 21
257.96284800000001
  0
LINE
  8
_0-3_CSLAYER12
  6
CONTINUOUS
 62
    3
 10
211.93500299999999
 20
269.203239
 11
181.73500300000001
 21
269.203239
  0
LINE
  8
_0-3_CSLAYER12
  6
CONTINUOUS
 62
    3
 10
214.63500300000001
 20
269.203239
 11
212.085003
 21
269.203239
  0
LINE
  8
_0-3_CSLAYER12
  6
CONTINUOUS
 62
    3
 10
214.68500299999999
 20
269.35323799999998
 11
211.93500299999999
 21
269.35323799999998
  0
LINE
  8
_0-3_CSLAYER12
  6
CONTINUOUS
 62
    3
 10
211.93500299999999
 20
269.35323799999998
 11
211.93500299999999
 21
269.203239
  0
LINE
  8
_0-3_CSLAYER12
  6
CONTINUOUS
 62
    3
 10
211.93500299999999
 20
269.35323799999998
 11
211.93500299999999
 21
269.203239
  0
LINE
  8
_0-3_CSLAYER12
  6
CONTINUOUS
 62
    4
 10
178.835003
 20
279.482393
 11
178.835003
 21
268.453239
  0
LINE
  8
_0-3_CSLAYER12
  6
CONTINUOUS
 62
    4
 10
170.835003
 20
279.482393
 11
170.835003
 21
256.89836100000002
  0
LINE
  8
_0-3_CSLAYER12
  6
CONTINUOUS
 62
    3
 10
179.03500299999999
 20
269.203239
 11
181.585003
 21
269.203239
  0
LINE
  8
_0-3_CSLAYER12
  6
CONTINUOUS
 62
    3
 10
179.03500299999999
 20
269.35323799999998
 11
181.73500300000001
 21
269.35323799999998
  0
LINE
  8
_0-3_CSLAYER12
  6
CONTINUOUS
 62
    3
 10
181.73500300000001
 20
269.35323799999998
 11
181.73500300000001
 21
269.203239
  0
LINE
  8
_0-3_CSLAYER12
  6
CONTINUOUS
 62
    3
 10
181.73500300000001
 20
269.35323799999998
 11
181.73500300000001
 21
269.203239
  0
LINE
  8
_0-3_CSLAYER12
  6
CONTINUOUS
 62
    7
 10
221.254547
 20
258.69499200000001
 11
214.835003
 21
265.11453499999999
  0
LINE
  8
_0-3_CSLAYER12
  6
CONTINUOUS
 62
    7
 10
221.254547
 20
257.93557299999998
 11
214.835003
 21
264.355118
  0
LINE
  8
_0-3_CSLAYER12
  6
CONTINUOUS
 62
    7
 10
221.254547
 20
259.37780199999997
 11
214.835003
 21
265.797347
  0
INSERT
  2
-075-BLKF0082
  8
_0-0_0
 10
0.25
 20
0
 41
1
 42
1
 50
0
  0
INSERT
  2
-076-BLKF0083
  8
_0-0_0
 10
0.25
 20
0
 41
1
 42
1
 50
0
  0
LINE
  8
_0-3_CSLAYER12
  6
CONTINUOUS
 62
    4
 10
178.835003
 20
279.482393
 11
178.835003
 21
256.89836100000002
  0
LINE
  8
_0-3_CSLAYER12
  6
CONTINUOUS
 62
    3
 10
214.835003
 20
267.75323800000001
 11
214.68500299999999
 21
267.75323800000001
  0
LINE
  8
_0-3_CSLAYER12
  6
CENTER
 62
    7
 10
214.835003
 20
269.00323800000001
 11
214.68500299999999
 21
269.00323800000001
  0
LINE
  8
_0-3_CSLAYER12
  6
CENTER
 62
    7
 10
214.835003
 20
268.00323800000001
 11
214.68500299999999
 21
268.00323800000001
  0
LINE
  8
_0-3_CSLAYER12
  6
CENTER
 62
    7
 10
214.835003
 20
268.953239
 11
214.68500299999999
 21
268.953239
  0
LINE
  8
_0-3_CSLAYER12
  6
CENTER
 62
    7
 10
214.835003
 20
268.90323899999999
 11
214.68500299999999
 21
268.90323899999999
  0
LINE
  8
_0-3_CSLAYER12
  6
CENTER
 62
    7
 10
214.835003
 20
268.85323799999998
 11
214.68500299999999
 21
268.85323799999998
  0
LINE
  8
_0-3_CSLAYER12
  6
CENTER
 62
    7
 10
214.835003
 20
268.80323900000002
 11
214.68500299999999
 21
268.80323900000002
  0
LINE
  8
_0-3_CSLAYER12
  6
CENTER
 62
    7
 10
214.835003
 20
268.75323800000001
 11
214.68500299999999
 21
268.75323800000001
  0
LINE
  8
_0-3_CSLAYER12
  6
CENTER
 62
    7
 10
214.835003
 20
268.703239
 11
214.68500299999999
 21
268.703239
  0
LINE
  8
_0-3_CSLAYER12
  6
CENTER
 62
    7
 10
214.835003
 20
268.65323899999999
 11
214.68500299999999
 21
268.65323899999999
  0
LINE
  8
_0-3_CSLAYER12
  6
CENTER
 62
    7
 10
214.835003
 20
268.60323799999998
 11
214.68500299999999
 21
268.60323799999998
  0
LINE
  8
_0-3_CSLAYER12
  6
CENTER
 62
    7
 10
214.835003
 20
268.55323900000002
 11
214.68500299999999
 21
268.55323900000002
  0
LINE
  8
_0-3_CSLAYER12
  6
CENTER
 62
    7
 10
214.835003
 20
268.50323800000001
 11
214.68500299999999
 21
268.50323800000001
  0
LINE
  8
_0-3_CSLAYER12
  6
CENTER
 62
    7
 10
214.835003
 20
268.453239
 11
214.68500299999999
 21
268.453239
  0
LINE
  8
_0-3_CSLAYER12
  6
CENTER
 62
    7
 10
214.835003
 20
268.40323899999999
 11
214.68500299999999
 21
268.40323899999999
  0
LINE
  8
_0-3_CSLAYER12
  6
CENTER
 62
    7
 10
214.835003
 20
268.35323799999998
 11
214.68500299999999
 21
268.35323799999998
  0
LINE
  8
_0-3_CSLAYER12
  6
CENTER
 62
    7
 10
214.835003
 20
268.30323900000002
 11
214.68500299999999
 21
268.30323900000002
  0
LINE
  8
_0-3_CSLAYER12
  6
CENTER
 62
    7
 10
214.835003
 20
268.25323800000001
 11
214.68500299999999
 21
268.25323800000001
  0
LINE
  8
_0-3_CSLAYER12
  6
CENTER
 62
    7
 10
214.835003
 20
268.203239
 11
214.68500299999999
 21
268.203239
  0
LINE
  8
_0-3_CSLAYER12
  6
CENTER
 62
    7
 10
214.835003
 20
268.15323899999999
 11
214.68500299999999
 21
268.15323899999999
  0
LINE
  8
_0-3_CSLAYER12
  6
CENTER
 62
    7
 10
214.835003
 20
268.10323799999998
 11
214.68500299999999
 21
268.10323799999998
  0
LINE
  8
_0-3_CSLAYER12
  6
CENTER
 62
    7
 10
214.835003
 20
268.05323900000002
 11
214.68500299999999
 21
268.05323900000002
  0
LINE
  8
_0-3_CSLAYER12
  6
CENTER
 62
    7
 10
214.835003
 20
268.00323800000001
 11
214.68500299999999
 21
268.00323800000001
  0
INSERT
  2
-077-BLKF0084
  8
_0-0_0
 10
0.25
 20
0
 41
1
 42
1
 50
0
  0
INSERT
  2
-078-BLKF0085
  8
_0-0_0
 10
0.25
 20
0
 41
1
 42
1
 50
0
  0
LINE
  8
_0-3_CSLAYER12
  6
CONTINUOUS
 62
    3
 10
214.68500299999999
 20
269.15323899999999
 11
214.68500299999999
 21
267.75323800000001
  0
ARC
  8
_0-3_CSLAYER12
  6
CONTINUOUS
 62
    3
 10
214.63500300000001
 20
269.15323899999999
 40
0.2
 50
0
 51
90
  0
ARC
  8
_0-3_CSLAYER12
  6
CONTINUOUS
 62
    3
 10
214.63500300000001
 20
269.15323899999999
 40
0.05
 50
0
 51
90
  0
LINE
  8
_0-3_CSLAYER12
  6
CONTINUOUS
 62
    3
 10
214.835003
 20
269.15323899999999
 11
214.835003
 21
267.75323800000001
  0
INSERT
  2
-079-BLKF0086
  8
_0-0_0
 10
0.25
 20
0
 41
1
 42
1
 50
0
  0
INSERT
  2
-080-BLKF0087
  8
_0-0_0
 10
0.25
 20
0
 41
1
 42
1
 50
0
  0
LINE
  8
_0-3_CSLAYER12
  6
CENTER
 62
    7
 10
176.68504300000001
 20
268.50323800000001
 11
179.64069900000001
 21
268.50323800000001
  0
LINE
  8
_0-3_CSLAYER12
  6
CONTINUOUS
 62
    3
 10
178.98500300000001
 20
269.15323899999999
 11
178.98500300000001
 21
267.75323800000001
  0
ARC
  8
_0-3_CSLAYER12
  6
CONTINUOUS
 62
    3
 10
179.03500299999999
 20
269.15323899999999
 40
0.05
 50
90
 51
180
  0
ARC
  8
_0-3_CSLAYER12
  6
CONTINUOUS
 62
    3
 10
179.03500299999999
 20
269.15323899999999
 40
0.2
 50
90
 51
180
  0
LINE
  8
_0-3_CSLAYER12
  6
CONTINUOUS
 62
    3
 10
178.835003
 20
267.75323800000001
 11
178.98500300000001
 21
267.75323800000001
  0
LINE
  8
_0-3_CSLAYER12
  6
CENTER
 62
    7
 10
216.95411300000001
 20
268.50323800000001
 11
214.04121000000001
 21
268.50323800000001
  0
INSERT
  2
-081-BLKF0088
  8
_0-0_0
 10
0.25
 20
0
 41
1
 42
1
 50
0
  0
INSERT
  2
-082-BLKF0089
  8
_0-0_0
 10
0.25
 20
0
 41
1
 42
1
 50
0
  0
INSERT
  2
-083-BLKF0090
  8
_0-0_0
 10
0.25
 20
0
 41
1
 42
1
 50
0
  0
INSERT
  2
-084-BLKF0091
  8
_0-0_0
 10
0.25
 20
0
 41
1
 42
1
 50
0
  0
LINE
  8
_0-3_CSLAYER12
  6
CONTINUOUS
 62
    3
 10
211.93500299999999
 20
268.40323799999999
 11
181.73500300000001
 21
268.40323799999999
  0
INSERT
  2
-085-BLKF0092
  8
_0-0_0
 10
0.25
 20
0
 41
1
 42
1
 50
0
  0
INSERT
  2
-086-BLKF0093
  8
_0-0_0
 10
0.25
 20
0
 41
1
 42
1
 50
0
  0
INSERT
  2
-087-BLKF0094
  8
_0-0_0
 10
0.25
 20
0
 41
1
 42
1
 50
0
  0
TEXT
  8
_0-0_0
 62
    7
 10
261.88980099999998
 20
175.334518
 40
4.2119999999999997
 41
0.7399179999999998
 50
0
  1
横 断 面 詳 細 S;1/2
  0
LINE
  8
_0-0_0
  6
CONTINUOUS
 62
    7
 10
306.99472200000002
 20
84.243776999999994
 11
306.99472200000002
 21
78.336912999999996
  0
INSERT
  2
-095-BLKF0102
  8
_0-0_0
 10
0.25
 20
0
 41
1
 42
1
 50
0
  0
TEXT
  8
_0-0_0
 62
    7
 10
261.88980099999998
 20
175.334518
 40
4.2119999999999997
 41
0.7399179999999998
 50
0
  1
横 断 面 詳 細 S;1/2
  0
TEXT
  8
_0-0_0
 62
    7
 10
272.51318400000002
 20
170.59599299999999
 40
4.2119999999999997
 41
0.7399179999999998
 50
0
  1
壁 ピ タ 取 付
  0
TEXT
  8
_0-0_0
 62
    7
 10
179.47674599999999
 20
12.292034000000001
 40
4.2119999999999997
 41
0.7399179999999998
 50
0
  1
標 準 取 付 
  0
TEXT
  8
_0-0_0
 62
    7
 10
29.318083000000001
 20
153.046448
 40
4.9000000000000004
 41
0.7142859999999997
 50
0
  1
手 摺 側
  0
LINE
  8
_0-0_0
  6
CONTINUOUS
 62
    7
 10
28.595936999999992
 20
158.38213099999999
 11
47.758899999999983
 21
158.38213099999999
  0
LINE
  8
_0-0_0
  6
CONTINUOUS
 62
    7
 10
28.595936999999992
 20
152.475268
 11
28.595936999999992
 21
158.38213099999999
  0
LINE
  8
_0-0_0
  6
CONTINUOUS
 62
    7
 10
47.758899999999983
 20
158.38213099999999
 11
47.758899999999983
 21
152.475268
  0
LINE
  8
_0-0_0
  6
CONTINUOUS
 62
    7
 10
47.758899999999983
 20
152.475268
 11
28.595936999999992
 21
152.475268
  0
LINE
  8
_0-0_0
  6
CONTINUOUS
 62
    7
 10
71.340710000000001
 20
141.77493999999999
 11
88.934798000000001
 21
124.180851
  0
LINE
  8
_0-0_0
  6
CONTINUOUS
 62
    7
 10
71.340710000000001
 20
139.84763799999999
 11
88.934798000000001
 21
122.25355
  0
LINE
  8
_0-0_0
  6
CONTINUOUS
 62
    7
 10
71.340710000000001
 20
137.92033699999999
 11
88.934798000000001
 21
120.32624800000001
  0
LINE
  8
_0-0_0
  6
PHANTOM
 62
    7
 10
110.181303
 20
131.80820800000001
 11
144.51063300000001
 21
131.80820800000001
  0
LINE
  8
_0-0_0
  6
PHANTOM
 62
    7
 10
110.181303
 20
131.14154099999999
 11
144.51063300000001
 21
131.14154099999999
  0
INSERT
  2
-096-BLKF0103
  8
_0-0_0
 10
0.25
 20
0
 41
1
 42
1
 50
0
  0
INSERT
  2
-097-BLKF0104
  8
_0-0_0
 10
0.25
 20
0
 41
1
 42
1
 50
0
  0
INSERT
  2
-098-BLKF0105
  8
_0-0_0
 10
0.25
 20
0
 41
1
 42
1
 50
0
  0
INSERT
  2
-099-BLKF0106
  8
_0-0_0
 10
0.25
 20
0
 41
1
 42
1
 50
0
  0
INSERT
  2
-100-BLKF0107
  8
_0-0_0
 10
0.25
 20
0
 41
1
 42
1
 50
0
  0
LINE
  8
_0-0_0
  6
CONTINUOUS
 62
    3
 10
122.934798
 20
136.42487399999999
 11
122.934798
 21
135.42487399999999
  0
LINE
  8
_0-0_0
  6
CONTINUOUS
 62
    7
 10
116.021401
 20
132.67487399999999
 11
116.021401
 21
130.17487399999999
  0
LINE
  8
_0-0_0
  6
CONTINUOUS
 62
    3
 10
105.309798
 20
135.42487399999999
 11
144.51063300000001
 21
135.42487399999999
  0
INSERT
  2
-101-BLKF0108
  8
_0-0_0
 10
0.25
 20
0
 41
1
 42
1
 50
0
  0
INSERT
  2
-102-BLKF0109
  8
_0-0_0
 10
0.25
 20
0
 41
1
 42
1
 50
0
  0
INSERT
  2
-103-BLKF0110
  8
_0-0_0
 10
0.25
 20
0
 41
1
 42
1
 50
0
  0
INSERT
  2
-104-BLKF0111
  8
_0-0_0
 10
0.25
 20
0
 41
1
 42
1
 50
0
  0
INSERT
  2
-105-BLKF0112
  8
_0-0_0
 10
0.25
 20
0
 41
1
 42
1
 50
0
  0
INSERT
  2
-106-BLKF0113
  8
_0-0_0
 10
0.25
 20
0
 41
1
 42
1
 50
0
  0
INSERT
  2
-107-BLKF0114
  8
_0-0_0
 10
0.25
 20
0
 41
1
 42
1
 50
0
  0
INSERT
  2
-108-BLKF0115
  8
_0-0_0
 10
0.25
 20
0
 41
1
 42
1
 50
0
  0
INSERT
  2
-109-BLKF0116
  8
_0-0_0
 10
0.25
 20
0
 41
1
 42
1
 50
0
  0
LINE
  8
_0-0_0
  6
CONTINUOUS
 62
    3
 10
110.309798
 20
127.424874
 11
144.51063300000001
 21
127.424874
  0
INSERT
  2
-110-BLKF0117
  8
_0-0_0
 10
0.25
 20
0
 41
1
 42
1
 50
0
  0
INSERT
  2
-111-BLKF0118
  8
_0-0_0
 10
0.25
 20
0
 41
1
 42
1
 50
0
  0
LINE
  8
_0-0_0
  6
CONTINUOUS
 62
    5
 10
114.434798
 20
153.087851
 11
115.08479800000001
 21
153.087851
  0
LINE
  8
_0-0_0
  6
CONTINUOUS
 62
    5
 10
122.934798
 20
153.087851
 11
116.934798
 21
153.087851
  0
INSERT
  2
-112-BLKF0119
  8
_0-0_0
 10
0.25
 20
0
 41
1
 42
1
 50
0
  0
INSERT
  2
-113-_D120
  8
_0-0_0
 10
0.25
 20
0
 41
1
 42
1
 50
0
  0
INSERT
  2
-114-_D121
  8
_0-0_0
 10
0.25
 20
0
 41
1
 42
1
 50
0
  0
INSERT
  2
-115-BLKF0122
  8
_0-0_0
 10
0.25
 20
0
 41
1
 42
1
 50
0
  0
INSERT
  2
-116-_D123
  8
_0-0_0
 10
0.25
 20
0
 41
1
 42
1
 50
0
  0
TEXT
  8
_0-0_0
 62
    7
 10
59.753276999999997
 20
162.57583600000001
 40
3.2200000000000002
 41
0.678995
 50
0
  1
フリー&ストッフﾟホ゛ルト
  0
LINE
  8
_0-0_0
  6
CONTINUOUS
 62
    7
 10
116.021401
 20
132.67487399999999
 11
144.51063300000001
 21
132.67487399999999
  0
LINE
  8
_0-0_0
  6
CONTINUOUS
 62
    7
 10
116.021401
 20
130.17487399999999
 11
144.51063300000001
 21
130.17487399999999
  0
LINE
  8
_0-0_0
  6
CENTER
 62
    7
 10
60.563406999999984
 20
131.42487399999999
 11
144.51063300000001
 21
131.42487399999999
  0
INSERT
  2
-117-_D124
  8
_0-0_0
 10
0.25
 20
0
 41
1
 42
1
 50
0
  0
LINE
  8
_0-0_0
  6
CONTINUOUS
 62
    4
 10
88.934798000000001
 20
104.024839
 11
88.934798000000001
 21
162.77938499999999
  0
TEXT
  8
_0-0_0
 62
    7
 10
80.473327999999981
 20
169.87323000000001
 40
4.2119999999999997
 41
0.7399179999999998
 50
0
  1
壁 ピ タ 取 付 
  0
TEXT
  8
_0-0_0
 62
    7
 10
75.54205300000001
 20
174.87338299999999
 40
4.2119999999999997
 41
0.7399179999999998
 50
0
  1
横 断 面 詳 細 S;1/2
  0
INSERT
  2
-118-BLKF0125
  8
_0-0_0
 10
0.25
 20
0
 41
1
 42
1
 50
0
  0
INSERT
  2
-119-BLKF0126
  8
_0-0_0
 10
0.25
 20
0
 41
1
 42
1
 50
0
  0
LINE
  8
_0-0_0
  6
PHANTOM
 62
    7
 10
292.68887599999999
 20
137.92487399999999
 11
291.18887599999999
 21
137.92487399999999
  0
LINE
  8
_0-0_0
  6
PHANTOM
 62
    7
 10
292.68887599999999
 20
142.42487399999999
 11
291.18887599999999
 21
142.42487399999999
  0
LINE
  8
_0-0_0
  6
PHANTOM
 62
    7
 10
292.68887599999999
 20
141.42487399999999
 11
291.18887599999999
 21
141.42487399999999
  0
LINE
  8
_0-0_0
  6
PHANTOM
 62
    7
 10
292.68887599999999
 20
140.92487399999999
 11
291.18887599999999
 21
140.92487399999999
  0
LINE
  8
_0-0_0
  6
PHANTOM
 62
    7
 10
292.68887599999999
 20
140.42487399999999
 11
291.18887599999999
 21
140.42487399999999
  0
LINE
  8
_0-0_0
  6
PHANTOM
 62
    7
 10
292.68887599999999
 20
139.92487399999999
 11
291.18887599999999
 21
139.92487399999999
  0
LINE
  8
_0-0_0
  6
PHANTOM
 62
    7
 10
292.68887599999999
 20
139.42487399999999
 11
291.18887599999999
 21
139.42487399999999
  0
LINE
  8
_0-0_0
  6
PHANTOM
 62
    7
 10
292.68887599999999
 20
138.92487399999999
 11
291.18887599999999
 21
138.92487399999999
  0
LINE
  8
_0-0_0
  6
PHANTOM
 62
    7
 10
292.68887599999999
 20
138.42487399999999
 11
291.18887599999999
 21
138.42487399999999
  0
INSERT
  2
-120-_D127
  8
_0-0_0
 10
0.25
 20
0
 41
1
 42
1
 50
0
  0
INSERT
  2
-121-_D128
  8
_0-0_0
 10
0.25
 20
0
 41
1
 42
1
 50
0
  0
INSERT
  2
-122-BLKF0129
  8
_0-0_0
 10
0.25
 20
0
 41
1
 42
1
 50
0
  0
INSERT
  2
-123-BLKF0130
  8
_0-0_0
 10
0.25
 20
0
 41
1
 42
1
 50
0
  0
TEXT
  8
_0-3_CSLAYER12
 62
    7
 10
219.575211
 20
244.411224
 40
3.2200000000000002
 41
0.645963
 50
0
  1
(　 ),寸法はカベピタ納まりを示す。
  0
INSERT
  2
-124-BLKF0131
  8
_0-0_0
 10
0.25
 20
0
 41
1
 42
1
 50
0
  0
INSERT
  2
-125-BLKF0132
  8
_0-0_0
 10
0.25
 20
0
 41
1
 42
1
 50
0
  0
LINE
  8
_0-3_CSLAYER12
  6
CENTER
 62
    7
 10
211.10407699999999
 20
177.2919
 11
193.435181
 21
177.2919
  0
INSERT
  2
-126-_D133
  8
_0-2_CSLAYER11
 10
0.25
 20
0
 41
1
 42
1
 50
0
  0
TEXT
  8
_0-0_0
 62
    7
 10
315.11630200000002
 20
10.208215999999993
 40
4.8300000000000001
 41
0.6820859999999997
 50
0
  1
エ　ス　デ　-　工　業　株　式　会　社
  0
TEXT
  8
_0-0_0
 62
    7
 10
189.530441
 20
167.654968
 40
1.6518600000000001
 41
0.6801239999999999
 50
0
  1
非常の時は、ここを破って
  0
TEXT
  8
_0-0_0
 62
    7
 10
190.99058500000001
 20
161.49139400000001
 40
1.6518600000000001
 41
0.678261
 50
0
  1
物を置かないで下さい
  0
LINE
  8
_0-0_0
  6
PHANTOM
 62
    7
 10
205.085003
 20
169.7919
 11
188.585003
 21
169.7919
  0
LINE
  8
_0-0_0
  6
PHANTOM
 62
    7
 10
188.585003
 20
169.7919
 11
188.585003
 21
160.2919
  0
LINE
  8
_0-0_0
  6
PHANTOM
 62
    7
 10
188.585003
 20
160.2919
 11
205.085003
 21
160.2919
  0
LINE
  8
_0-0_0
  6
PHANTOM
 62
    7
 10
205.085003
 20
160.2919
 11
205.085003
 21
169.7919
  0
TEXT
  8
_0-0_0
 62
    7
 10
193.64999399999999
 20
153.43820199999999
 40
3.2200000000000002
 41
0.65942
 50
0
  1
330
  0
LINE
  8
_0-0_0
  6
CONTINUOUS
 62
    5
 10
205.085003
 20
160.2919
 11
205.085003
 21
151.43819300000001
  0
LINE
  8
_0-0_0
  6
CONTINUOUS
 62
    5
 10
188.585003
 20
160.2919
 11
188.585003
 21
151.43819300000001
  0
LINE
  8
_0-0_0
  6
CONTINUOUS
 62
    5
 10
205.085003
 20
152.43819300000001
 11
188.585003
 21
152.43819300000001
  0
LINE
  8
_0-0_0
  6
CONTINUOUS
 62
    5
 10
205.085003
 20
152.43819300000001
 11
204.085003
 21
152.43819300000001
  0
CIRCLE
  8
_0-0_0
  6
CONTINUOUS
 62
    5
 10
205.085003
 20
152.43819300000001
 40
0.5
  0
CIRCLE
  8
_0-0_0
  6
CONTINUOUS
 62
    5
 10
205.085003
 20
152.43819300000001
 40
0.25
  0
LINE
  8
_0-0_0
  6
CONTINUOUS
 62
    5
 10
188.585003
 20
152.43819300000001
 11
189.585003
 21
152.43819300000001
  0
CIRCLE
  8
_0-0_0
  6
CONTINUOUS
 62
    5
 10
188.585003
 20
152.43819300000001
 40
0.5
  0
CIRCLE
  8
_0-0_0
  6
CONTINUOUS
 62
    5
 10
188.585003
 20
152.43819300000001
 40
0.25
  0
TEXT
  8
_0-0_0
 62
    7
 10
190.75907900000001
 20
163.71954299999999
 40
1.6518600000000001
 41
0.678261
 50
0
  1
避難のため、ここには
  0
TEXT
  8
_0-0_0
 62
    7
 10
207.843369
 20
161.85690299999999
 40
3.2200000000000002
 41
0.65942
 50
90
  1
190
  0
LINE
  8
_0-0_0
  6
CONTINUOUS
 62
    5
 10
205.085003
 20
160.2919
 11
209.84335999999999
 21
160.2919
  0
LINE
  8
_0-0_0
  6
CONTINUOUS
 62
    5
 10
205.085003
 20
169.7919
 11
209.84335999999999
 21
169.7919
  0
LINE
  8
_0-0_0
  6
CONTINUOUS
 62
    5
 10
208.84335999999999
 20
160.2919
 11
208.84335999999999
 21
169.7919
  0
LINE
  8
_0-0_0
  6
CONTINUOUS
 62
    5
 10
208.84335999999999
 20
160.2919
 11
208.84335999999999
 21
161.2919
  0
CIRCLE
  8
_0-0_0
  6
CONTINUOUS
 62
    5
 10
208.84335999999999
 20
160.2919
 40
0.5
  0
CIRCLE
  8
_0-0_0
  6
CONTINUOUS
 62
    5
 10
208.84335999999999
 20
160.2919
 40
0.25
  0
LINE
  8
_0-0_0
  6
CONTINUOUS
 62
    5
 10
208.84335999999999
 20
169.7919
 11
208.84335999999999
 21
168.7919
  0
CIRCLE
  8
_0-0_0
  6
CONTINUOUS
 62
    5
 10
208.84335999999999
 20
169.7919
 40
0.5
  0
CIRCLE
  8
_0-0_0
  6
CONTINUOUS
 62
    5
 10
208.84335999999999
 20
169.7919
 40
0.25
  0
TEXT
  8
_0-0_0
 62
    7
 10
207.843369
 20
170.35690299999999
 40
3.2200000000000002
 41
0.65942
 50
90
  1
≒150
  0
LINE
  8
_0-0_0
  6
CONTINUOUS
 62
    5
 10
208.84335999999999
 20
169.7919
 11
208.84335999999999
 21
177.2919
  0
LINE
  8
_0-0_0
  6
CONTINUOUS
 62
    5
 10
208.84335999999999
 20
169.7919
 11
208.84335999999999
 21
170.7919
  0
CIRCLE
  8
_0-0_0
  6
CONTINUOUS
 62
    5
 10
208.84335999999999
 20
169.7919
 40
0.5
  0
CIRCLE
  8
_0-0_0
  6
CONTINUOUS
 62
    5
 10
208.84335999999999
 20
169.7919
 40
0.25
  0
LINE
  8
_0-0_0
  6
CONTINUOUS
 62
    5
 10
208.84335999999999
 20
177.2919
 11
208.84335999999999
 21
176.2919
  0
CIRCLE
  8
_0-0_0
  6
CONTINUOUS
 62
    5
 10
208.84335999999999
 20
177.2919
 40
0.5
  0
CIRCLE
  8
_0-0_0
  6
CONTINUOUS
 62
    5
 10
208.84335999999999
 20
177.2919
 40
0.25
  0
TEXT
  8
_0-0_0
 62
    7
 10
189.51478599999999
 20
165.71618699999999
 40
1.6518600000000001
 41
0.6801239999999999
 50
0
  1
 　隣戸へ避難できます
  0
TEXT
  8
_0-0_0
 62
    7
 10
297.10067700000002
 20
91.857658000000001
 40
3.2200000000000002
 41
0.681289
 50
0
  1
ブラケットはSUS304
  0
ENDSEC
  0
EOF
